  0
SECTION
  2
HEADER
  9
$ACADVER
  1
AC1009
  9
$INSBASE
 10
0.0
 20
0.0
 30
0.0
  9
$EXTMIN
 10
-170.0164782349211
 20
-265.80211091866681
 30
-0.0015258207003583
  9
$EXTMAX
 10
370.0164807494923
 20
537.08808227102497
 30
0.0000000349246037
  9
$LIMMIN
 10
0.0
 20
0.0
  9
$LIMMAX
 10
0.0
 20
0.0
  9
$ORTHOMODE
 70
     0
  9
$REGENMODE
 70
     1
  9
$FILLMODE
 70
     1
  9
$QTEXTMODE
 70
     0
  9
$MIRRTEXT
 70
     1
  9
$DRAGMODE
 70
     2
  9
$LTSCALE
 40
15.24
  9
$OSMODE
 70
   231
  9
$ATTMODE
 70
     1
  9
$TEXTSIZE
 40
0.0
  9
$TRACEWID
 40
1.0
  9
$TEXTSTYLE
  7
STANDARD
  9
$CLAYER
  8
DATA
  9
$CELTYPE
  6
BYLAYER
  9
$CECOLOR
 62
   256
  9
$DIMSCALE
 40
1.0
  9
$DIMASZ
 40
0.18
  9
$DIMEXO
 40
0.0625
  9
$DIMDLI
 40
0.38
  9
$DIMRND
 40
0.0
  9
$DIMDLE
 40
0.0
  9
$DIMEXE
 40
0.18
  9
$DIMTP
 40
0.0
  9
$DIMTM
 40
0.0
  9
$DIMTXT
 40
0.18
  9
$DIMCEN
 40
0.09
  9
$DIMTSZ
 40
0.0
  9
$DIMTOL
 70
     0
  9
$DIMLIM
 70
     0
  9
$DIMTIH
 70
     1
  9
$DIMTOH
 70
     1
  9
$DIMSE1
 70
     0
  9
$DIMSE2
 70
     0
  9
$DIMTAD
 70
     0
  9
$DIMZIN
 70
     0
  9
$DIMBLK
  1

  9
$DIMASO
 70
     1
  9
$DIMSHO
 70
     1
  9
$DIMPOST
  1

  9
$DIMAPOST
  1

  9
$DIMALT
 70
     0
  9
$DIMALTD
 70
     2
  9
$DIMALTF
 40
25.399999999999999
  9
$DIMLFAC
 40
1.0
  9
$DIMTOFL
 70
     0
  9
$DIMTVP
 40
0.0
  9
$DIMTIX
 70
     0
  9
$DIMSOXD
 70
     0
  9
$DIMSAH
 70
     0
  9
$DIMBLK1
  1

  9
$DIMBLK2
  1

  9
$DIMSTYLE
  2
STANDARD
  9
$DIMCLRD
 70
     0
  9
$DIMCLRE
 70
     0
  9
$DIMCLRT
 70
     0
  9
$DIMTFAC
 40
1.0
  9
$DIMGAP
 40
0.09
  9
$LUNITS
 70
     2
  9
$LUPREC
 70
     4
  9
$SKETCHINC
 40
0.1
  9
$FILLETRAD
 40
0.0
  9
$AUNITS
 70
     0
  9
$AUPREC
 70
     0
  9
$MENU
  1
acad
  9
$ELEVATION
 40
0.0
  9
$PELEVATION
 40
0.0
  9
$THICKNESS
 40
0.0
  9
$LIMCHECK
 70
     0
  9
$BLIPMODE
 70
     0
  9
$CHAMFERA
 40
0.0
  9
$CHAMFERB
 40
0.0
  9
$SKPOLY
 70
     0
  9
$TDCREATE
 40
2455223.8690393521
  9
$TDUPDATE
 40
2455223.8711701161
  9
$TDINDWG
 40
0.0003709028
  9
$TDUSRTIMER
 40
0.0003707176
  9
$USRTIMER
 70
     1
  9
$ANGBASE
 50
0.0
  9
$ANGDIR
 70
     0
  9
$PDMODE
 70
     1
  9
$PDSIZE
 40
-2.0
  9
$PLINEWID
 40
0.0
  9
$COORDS
 70
     0
  9
$SPLFRAME
 70
     0
  9
$SPLINETYPE
 70
     6
  9
$SPLINESEGS
 70
     8
  9
$ATTDIA
 70
     0
  9
$ATTREQ
 70
     1
  9
$HANDLING
 70
     1
  9
$HANDSEED
  5
516
  9
$SURFTAB1
 70
     6
  9
$SURFTAB2
 70
     6
  9
$SURFTYPE
 70
     6
  9
$SURFU
 70
     6
  9
$SURFV
 70
     6
  9
$UCSNAME
  2

  9
$UCSORG
 10
0.0
 20
0.0
 30
0.0
  9
$UCSXDIR
 10
1.0
 20
0.0
 30
0.0
  9
$UCSYDIR
 10
0.0
 20
1.0
 30
0.0
  9
$PUCSNAME
  2

  9
$PUCSORG
 10
0.0
 20
0.0
 30
0.0
  9
$PUCSXDIR
 10
1.0
 20
0.0
 30
0.0
  9
$PUCSYDIR
 10
0.0
 20
1.0
 30
0.0
  9
$USERI1
 70
     0
  9
$USERI2
 70
     0
  9
$USERI3
 70
     0
  9
$USERI4
 70
     0
  9
$USERI5
 70
     0
  9
$USERR1
 40
0.0
  9
$USERR2
 40
0.0
  9
$USERR3
 40
0.0
  9
$USERR4
 40
0.0
  9
$USERR5
 40
0.0
  9
$WORLDVIEW
 70
     1
  9
$SHADEDGE
 70
     3
  9
$SHADEDIF
 70
    70
  9
$TILEMODE
 70
     1
  9
$MAXACTVP
 70
    64
  9
$PLIMCHECK
 70
     0
  9
$PEXTMIN
 10
1.0000000000000000E+020
 20
1.0000000000000000E+020
 30
1.0000000000000000E+020
  9
$PEXTMAX
 10
-1.0000000000000000E+020
 20
-1.0000000000000000E+020
 30
-1.0000000000000000E+020
  9
$PLIMMIN
 10
0.0
 20
0.0
  9
$PLIMMAX
 10
12.0
 20
9.0
  9
$UNITMODE
 70
     0
  9
$VISRETAIN
 70
     0
  9
$PLINEGEN
 70
     1
  9
$PSLTSCALE
 70
     0
  0
ENDSEC
  0
SECTION
  2
TABLES
  0
TABLE
  2
VPORT
 70
     1
  0
VPORT
  2
*ACTIVE
 70
     0
 10
0.0
 20
0.0
 11
1.0
 21
1.0
 12
100.0000012572857
 22
135.64298567617911
 13
0.0
 23
0.0
 14
1.0
 24
1.0
 15
0.0
 25
0.0
 16
0.0
 26
0.0
 36
1.0
 17
0.0
 27
0.0
 37
0.0
 40
808.80830272180265
 41
1.964329643296433
 42
50.0
 43
0.0
 44
0.0
 50
0.0
 51
0.0
 71
     0
 72
  2000
 73
     1
 74
     1
 75
     0
 76
     0
 77
     0
 78
     0
  0
ENDTAB
  0
TABLE
  2
LTYPE
 70
    11
  0
LTYPE
  2
CONTINUOUS
 70
     0
  3
Solid line
 72
    65
 73
     0
 40
0.0
  0
LTYPE
  2
STYLE_05
 70
     0
  3

 72
    65
 73
     2
 40
0.208282470703125
 49
0.069427490234375
 49
-0.13885498046875
  0
ENDTAB
  0
TABLE
  2
LAYER
 70
     6
  0
LAYER
  2
0
 70
     0
 62
     7
  6
CONTINUOUS
  0
LAYER
  2
DATA
 70
     0
 62
     7
  6
CONTINUOUS
  0
LAYER
  2
HIBINO-BASE
 70
     0
 62
     7
  6
CONTINUOUS
  0
LAYER
  2
PATTERN_FILL
 70
     0
 62
     7
  6
CONTINUOUS
  0
LAYER
  2
SPEC
 70
     0
 62
     7
  6
CONTINUOUS
  0
LAYER
  2
DIMNSIONS
 70
     0
 62
     7
  6
CONTINUOUS
  0
ENDTAB
  0
TABLE
  2
STYLE
 70
     3
  0
STYLE
  2
STANDARD
 70
     0
 40
0.0
 41
1.0
 50
0.0
 71
     0
 42
0.0
  3
txt
  4
BIGFONT.SHX
  0
ENDTAB
  0
TABLE
  2
VIEW
 70
     0
  0
ENDTAB
  0
TABLE
  2
UCS
 70
     0
  0
ENDTAB
  0
TABLE
  2
APPID
 70
     3
  0
APPID
  2
ACAD
 70
     0
  0
APPID
  2
ACADANNOTATIVE
 70
     0
  0
APPID
  2
ACAD_MLEADERVER
 70
     0
  0
ENDTAB
  0
TABLE
  2
DIMSTYLE
 70
     2
  0
DIMSTYLE
  2
STANDARD
 70
     0
  3

  4

  5

  6

  7

 40
1.0
 41
0.18
 42
0.0625
 43
0.38
 44
0.18
 45
0.0
 46
0.0
 47
0.0
 48
0.0
140
0.18
141
0.09
142
0.0
143
25.399999999999999
144
1.0
145
0.0
146
1.0
147
0.09
 71
     0
 72
     0
 73
     1
 74
     1
 75
     0
 76
     0
 77
     0
 78
     0
170
     0
171
     2
172
     0
173
     0
174
     0
175
     0
176
     0
177
     0
178
     0
  0
ENDTAB
  0
ENDSEC
  0
SECTION
  2
BLOCKS
  0
BLOCK
  8
0
  2
$MODEL_SPACE
 70
     0
 10
0.0
 20
0.0
 30
0.0
  3
$MODEL_SPACE
  1

  0
ENDBLK
  5
473
  8
0
  0
BLOCK
 67
     1
  8
0
  2
$PAPER_SPACE
 70
     0
 10
0.0
 20
0.0
 30
0.0
  3
$PAPER_SPACE
  1

  0
ENDBLK
  5
46F
 67
     1
  8
0
  0
ENDSEC
  0
SECTION
  2
ENTITIES
  0
LINE
  5
2D
  8
HIBINO-BASE
  6
CONTINUOUS
 62
     7
 10
-169.99999999999989
 20
537.06362999999999
 30
0.0
 11
370.0
 21
537.06362999999999
 31
0.0
  0
LINE
  5
2E
  8
HIBINO-BASE
  6
CONTINUOUS
 62
     7
 10
370.0
 20
-242.93637000000001
 30
0.0
 11
-169.99999999999989
 21
-242.93637000000001
 31
0.0
  0
LINE
  5
2F
  8
HIBINO-BASE
  6
CONTINUOUS
 62
     7
 10
-169.99999999999989
 20
-242.93637000000001
 30
0.0
 11
-169.99999999999989
 21
537.06362999999999
 31
0.0
  0
TEXT
  5
30
  8
HIBINO-BASE
 62
     7
 10
-148.44799999999989
 20
-262.1624033999999
 30
0.0
 40
10.800132539062499
  1
Hibino Corporation
 41
0.7
 11
-148.44799999999989
 21
-251.3622708609374
 31
0.0
 73
     3
  0
LINE
  5
31
  8
HIBINO-BASE
  6
CONTINUOUS
 62
     7
 10
370.0
 20
537.06362999999999
 30
0.0
 11
370.0
 21
-242.93637000000001
 31
0.0
  0
LINE
  5
32
  8
HIBINO-BASE
  6
CONTINUOUS
 62
     7
 10
100.0
 20
-175.4363699999999
 30
0.0
 11
370.0
 21
-175.4363699999999
 31
0.0
  0
LINE
  5
33
  8
HIBINO-BASE
  6
CONTINUOUS
 62
     7
 10
100.0
 20
-242.93637000000001
 30
0.0
 11
100.0
 21
-175.4363699999999
 31
0.0
  0
TEXT
  5
34
  8
HIBINO-BASE
 62
     7
 10
102.7
 20
-182.96244999999999
 30
0.0
 40
4.8865234374999993
  1
NOTE
 41
0.7
 11
102.7
 21
-178.0759265625
 31
0.0
 73
     3
  0
LINE
  5
35
  8
HIBINO-BASE
  6
CONTINUOUS
 62
     7
 10
205.0
 20
-242.93637000000001
 30
0.0
 11
205.0
 21
-175.4363699999999
 31
0.0
  0
TEXT
  5
36
  8
HIBINO-BASE
 62
     7
 10
207.69999999999999
 20
-182.96244999999999
 30
0.0
 40
4.8865234374999993
  1
TITLE
 41
0.7
 11
207.69999999999999
 21
-178.0759265625
 31
0.0
 73
     3
  0
TEXT
  5
37
  8
HIBINO-BASE
 62
     7
 10
250.2051699999999
 20
-262.1624033999999
 30
0.0
 40
10.800132539062499
  1
ヒビノ株式会社
 41
0.7
 11
250.2051699999999
 21
-251.3622708609374
 31
0.0
 73
     3
  0
LINE
  5
38
  8
HIBINO-BASE
  6
CONTINUOUS
 62
     7
 10
100.0
 20
-212.9363699999999
 30
0.0
 11
370.0
 21
-212.9363699999999
 31
0.0
  0
TEXT
  5
39
  8
HIBINO-BASE
 62
     7
 10
245.19999999999999
 20
-220.29348999999999
 30
0.0
 40
4.8865234374999993
  1
DRAWN
 41
0.7
 11
245.19999999999999
 21
-215.4069665625
 31
0.0
 73
     3
  0
TEXT
  5
3A
  8
HIBINO-BASE
 62
     7
 10
170.19999999999999
 20
-220.29348999999999
 30
0.0
 40
4.8865234374999993
  1
DATE
 41
0.7
 11
170.19999999999999
 21
-215.4069665625
 31
0.0
 73
     3
  0
TEXT
  5
3B
  8
HIBINO-BASE
 62
     7
 10
140.19999999999999
 20
-220.29348999999999
 30
0.0
 40
4.8865234374999993
  1
SCALE
 41
0.7
 11
140.19999999999999
 21
-215.4069665625
 31
0.0
 73
     3
  0
TEXT
  5
3C
  8
HIBINO-BASE
 62
     7
 10
207.69999999999999
 20
-220.29348999999999
 30
0.0
 40
4.8865234374999993
  1
DESIGN
 41
0.7
 11
207.69999999999999
 21
-215.4069665625
 31
0.0
 73
     3
  0
TEXT
  5
3D
  8
HIBINO-BASE
 62
     7
 10
320.19999999999999
 20
-220.29348999999999
 30
0.0
 40
4.8865234374999993
  1
DRAWING NO.
 41
0.7
 11
320.19999999999999
 21
-215.4069665625
 31
0.0
 73
     3
  0
TEXT
  5
3E
  8
HIBINO-BASE
 62
     7
 10
282.69999999999999
 20
-220.29348999999999
 30
0.0
 40
4.8865234374999993
  1
CHECK
 41
0.7
 11
282.69999999999999
 21
-215.4069665625
 31
0.0
 73
     3
  0
LINE
  5
3F
  8
HIBINO-BASE
  6
CONTINUOUS
 62
     7
 10
143.12499999999989
 20
-239.18637000000001
 30
0.0
 11
154.375
 21
-227.93637000000001
 31
0.0
  0
TEXT
  5
40
  8
HIBINO-BASE
 62
     7
 10
141.24999999999989
 20
-231.26320000000001
 30
0.0
 40
4.8865234374999993
  1
1
 41
0.7
 11
141.24999999999989
 21
-226.37667656249999
 31
0.0
 73
     3
  0
LINE
  5
41
  8
HIBINO-BASE
  6
CONTINUOUS
 62
     7
 10
137.5
 20
-242.93637000000001
 30
0.0
 11
137.5
 21
-212.9363699999999
 31
0.0
  0
LINE
  5
42
  8
HIBINO-BASE
  6
CONTINUOUS
 62
     7
 10
167.5
 20
-242.93637000000001
 30
0.0
 11
167.5
 21
-212.9363699999999
 31
0.0
  0
LINE
  5
43
  8
HIBINO-BASE
  6
CONTINUOUS
 62
     7
 10
242.5
 20
-212.9363699999999
 30
0.0
 11
242.5
 21
-242.93637000000001
 31
0.0
  0
LINE
  5
44
  8
HIBINO-BASE
  6
CONTINUOUS
 62
     7
 10
317.5
 20
-212.9363699999999
 30
0.0
 11
317.5
 21
-242.93637000000001
 31
0.0
  0
LINE
  5
45
  8
HIBINO-BASE
  6
CONTINUOUS
 62
     7
 10
279.99999999999989
 20
-242.93637000000001
 30
0.0
 11
279.99999999999989
 21
-212.9363699999999
 31
0.0
  0
TEXT
  5
46
  8
HIBINO-BASE
 62
     7
 10
170.06961999999999
 20
-234.34542999999999
 30
0.0
 40
4.8865234374999993
  1
'10.01.
 41
0.7
 11
170.06961999999999
 21
-229.4589065625
 31
0.0
 73
     3
  0
TEXT
  5
47
  8
HIBINO-BASE
 62
     7
 10
152.5
 20
-236.88820000000001
 30
0.0
 40
4.8865234374999993
  1
3
 41
0.7
 11
152.5
 21
-232.00167656249999
 31
0.0
 73
     3
  0
TEXT
  5
48
  8
HIBINO-BASE
 62
     7
 10
247.01743003310389
 20
-234.34542999999999
 30
0.0
 40
4.8865234374999993
  1
N.Sasaki
 41
0.7
 11
247.01743003310389
 21
-229.4589065625
 31
0.0
 73
     3
  0
TEXT
  5
49
  8
HIBINO-BASE
 62
     7
 10
111.65000000000001
 20
-237.00837000000001
 30
0.0
 40
9.7730468749999986
  1
A4
 41
0.7
 11
111.65000000000001
 21
-227.23532312500001
 31
0.0
 73
     3
  0
TEXT
  5
4A
  8
HIBINO-BASE
 62
     7
 10
102.875
 20
-220.794735
 30
0.0
 40
4.8865234374999993
  1
PAPER SIZE
 41
0.7
 11
102.875
 21
-215.90821156249999
 31
0.0
 73
     3
  0
LINE
  5
4B
  8
PATTERN_FILL
  6
CONTINUOUS
 62
     7
 10
-35.71035590066235
 20
178.4902747040496
 30
0.0
 11
-38.557615906854892
 21
183.421873697134
 31
0.0
  0
LINE
  5
4C
  8
PATTERN_FILL
  6
CONTINUOUS
 62
     7
 10
-35.562759134654051
 20
179.83462960629029
 30
0.0
 11
-37.319572026808189
 21
182.87751879489321
 31
0.0
  0
LINE
  5
4D
  8
PATTERN_FILL
  6
CONTINUOUS
 62
     7
 10
-38.726632231761229
 20
175.71461855918031
 30
0.0
 11
-42.469542806031527
 21
182.19752984200329
 31
0.0
  0
LINE
  5
4E
  8
PATTERN_FILL
  6
CONTINUOUS
 62
     7
 10
-37.943833946803281
 20
175.95877215755519
 30
0.0
 11
-41.86670044493443
 21
182.75337624362831
 31
0.0
  0
LINE
  5
4F
  8
PATTERN_FILL
  6
CONTINUOUS
 62
     7
 10
-37.244682687443557
 20
176.34780665416841
 30
0.0
 11
-41.18021105823906
 21
183.16434174701499
 31
0.0
  0
LINE
  5
50
  8
PATTERN_FILL
  6
CONTINUOUS
 62
     7
 10
-36.628338261866062
 20
176.88026679410649
 30
0.0
 11
-40.410914837761361
 21
183.431881607077
 31
0.0
  0
LINE
  5
51
  8
PATTERN_FILL
  6
CONTINUOUS
 62
     7
 10
-36.10580451646689
 20
177.57521179840589
 30
0.0
 11
-39.54780793710546
 21
183.5369366027777
 31
0.0
  0
LINE
  5
52
  8
PATTERN_FILL
  6
CONTINUOUS
 62
     7
 10
-39.369965950198811
 20
175.63947737472631
 30
0.0
 11
-36.153716159415509
 21
177.4963800572161
 31
0.0
  0
LINE
  5
53
  8
PATTERN_FILL
  6
CONTINUOUS
 62
     7
 10
-40.669757948718917
 20
175.81280254519359
 30
0.0
 11
-35.653924160895357
 21
178.70869553280389
 31
0.0
  0
LINE
  5
54
  8
PATTERN_FILL
  6
CONTINUOUS
 62
     7
 10
-41.567374054851868
 20
176.21832407539219
 30
0.0
 11
-35.556308054762482
 21
179.68881464866041
 31
0.0
  0
LINE
  5
55
  8
PATTERN_FILL
  6
CONTINUOUS
 62
     7
 10
-42.25073297792509
 20
176.7475470479061
 30
0.0
 11
-35.672949131689208
 21
180.5452323222016
 31
0.0
  0
LINE
  5
56
  8
PATTERN_FILL
  6
CONTINUOUS
 62
     7
 10
-42.773642858772448
 20
177.36940531814039
 30
0.0
 11
-35.950039250841812
 21
181.30901469802239
 31
0.0
  0
LINE
  5
57
  8
PATTERN_FILL
  6
CONTINUOUS
 62
     7
 10
-43.153591785201598
 20
178.0738021338916
 30
0.0
 11
-36.370090324412658
 21
181.99025852832639
 31
0.0
  0
LINE
  5
58
  8
PATTERN_FILL
  6
CONTINUOUS
 62
     7
 10
-43.38791521463704
 20
178.86227586953299
 30
0.0
 11
-36.935766894977213
 21
182.58742543874001
 31
0.0
  0
LINE
  5
59
  8
PATTERN_FILL
  6
CONTINUOUS
 62
     7
 10
-43.451674259736741
 20
179.74922499838479
 30
0.0
 11
-37.672007849877602
 21
183.08611695594331
 31
0.0
  0
LINE
  5
5A
  8
PATTERN_FILL
  6
CONTINUOUS
 62
     7
 10
-43.271541775659252
 20
180.7769849672602
 30
0.0
 11
-38.652140333954932
 21
183.4439976331231
 31
0.0
  0
LINE
  5
5B
  8
PATTERN_FILL
  6
CONTINUOUS
 62
     7
 10
-42.527301859593813
 20
182.13043251384559
 30
0.0
 11
-40.196380250020447
 21
183.4761907325927
 31
0.0
  0
LINE
  5
5C
  8
PATTERN_FILL
  6
CONTINUOUS
 62
     7
 10
-41.936468495434767
 20
176.47421805183981
 30
0.0
 11
-43.416628480523428
 21
179.0379303493437
 31
0.0
  0
LINE
  5
5D
  8
PATTERN_FILL
  6
CONTINUOUS
 62
     7
 10
-40.622627913625983
 20
175.79857941110109
 30
0.0
 11
-43.344828416277032
 21
180.51356899008229
 31
0.0
  0
LINE
  5
5E
  8
PATTERN_FILL
  6
CONTINUOUS
 62
     7
 10
-39.606428874126422
 20
175.63847104408521
 30
0.0
 11
-42.975386809721492
 21
181.4736773570983
 31
0.0
  0
LINE
  5
5F
  8
PATTERN_FILL
  6
CONTINUOUS
 62
     7
 10
60.153591785928342
 20
178.0738021338916
 30
0.0
 11
53.370090325139351
 21
181.99025852832639
 31
0.0
  0
LINE
  5
60
  8
PATTERN_FILL
  6
CONTINUOUS
 62
     7
 10
60.387915215363783
 20
178.86227586953299
 30
0.0
 11
53.935766895703928
 21
182.58742543874001
 31
0.0
  0
LINE
  5
61
  8
PATTERN_FILL
  6
CONTINUOUS
 62
     7
 10
60.45167426046347
 20
179.74922499838479
 30
0.0
 11
54.672007850604302
 21
183.08611695594331
 31
0.0
  0
LINE
  5
62
  8
PATTERN_FILL
  6
CONTINUOUS
 62
     7
 10
60.271541776385973
 20
180.7769849672602
 30
0.0
 11
55.652140334681633
 21
183.4439976331231
 31
0.0
  0
LINE
  5
63
  8
PATTERN_FILL
  6
CONTINUOUS
 62
     7
 10
59.52730186032052
 20
182.13043251384559
 30
0.0
 11
57.196380250747147
 21
183.4761907325927
 31
0.0
  0
LINE
  5
64
  8
PATTERN_FILL
  6
CONTINUOUS
 62
     7
 10
57.669757949445632
 20
175.81280254519359
 30
0.0
 11
52.653924161622051
 21
178.70869553280389
 31
0.0
  0
LINE
  5
65
  8
PATTERN_FILL
  6
CONTINUOUS
 62
     7
 10
58.567374055578583
 20
176.21832407539219
 30
0.0
 11
52.556308055489168
 21
179.68881464866041
 31
0.0
  0
LINE
  5
66
  8
PATTERN_FILL
  6
CONTINUOUS
 62
     7
 10
59.250732978651811
 20
176.7475470479061
 30
0.0
 11
52.67294913241588
 21
180.5452323222016
 31
0.0
  0
LINE
  5
67
  8
PATTERN_FILL
  6
CONTINUOUS
 62
     7
 10
59.773642859499162
 20
177.36940531814039
 30
0.0
 11
52.950039251568498
 21
181.30901469802239
 31
0.0
  0
LINE
  5
68
  8
PATTERN_FILL
  6
CONTINUOUS
 62
     7
 10
56.369965950925518
 20
175.63947737472631
 30
0.0
 11
53.153716160142203
 21
177.4963800572161
 31
0.0
  0
LINE
  5
69
  8
PATTERN_FILL
  6
CONTINUOUS
 62
     7
 10
58.936468496161481
 20
176.47421805183981
 30
0.0
 11
60.41662848125015
 21
179.0379303493437
 31
0.0
  0
LINE
  5
6A
  8
PATTERN_FILL
  6
CONTINUOUS
 62
     7
 10
57.622627914352691
 20
175.79857941110109
 30
0.0
 11
60.34482841700374
 21
180.51356899008229
 31
0.0
  0
LINE
  5
6B
  8
PATTERN_FILL
  6
CONTINUOUS
 62
     7
 10
56.60642887485313
 20
175.63847104408521
 30
0.0
 11
59.975386810448207
 21
181.4736773570983
 31
0.0
  0
LINE
  5
6C
  8
PATTERN_FILL
  6
CONTINUOUS
 62
     7
 10
55.72663223248793
 20
175.71461855918031
 30
0.0
 11
59.469542806758241
 21
182.19752984200329
 31
0.0
  0
LINE
  5
6D
  8
PATTERN_FILL
  6
CONTINUOUS
 62
     7
 10
54.943833947529967
 20
175.95877215755519
 30
0.0
 11
58.866700445661138
 21
182.75337624362831
 31
0.0
  0
LINE
  5
6E
  8
PATTERN_FILL
  6
CONTINUOUS
 62
     7
 10
54.244682688170251
 20
176.34780665416841
 30
0.0
 11
58.180211058965781
 21
183.16434174701499
 31
0.0
  0
LINE
  5
6F
  8
PATTERN_FILL
  6
CONTINUOUS
 62
     7
 10
53.628338262592763
 20
176.88026679410649
 30
0.0
 11
57.410914838488061
 21
183.431881607077
 31
0.0
  0
LINE
  5
70
  8
PATTERN_FILL
  6
CONTINUOUS
 62
     7
 10
53.105804517193562
 20
177.57521179840589
 30
0.0
 11
56.547807937832147
 21
183.5369366027777
 31
0.0
  0
LINE
  5
71
  8
PATTERN_FILL
  6
CONTINUOUS
 62
     7
 10
52.710355901389043
 20
178.4902747040496
 30
0.0
 11
55.557615907581578
 21
183.421873697134
 31
0.0
  0
LINE
  5
72
  8
PATTERN_FILL
  6
CONTINUOUS
 62
     7
 10
52.562759135380738
 20
179.83462960629029
 30
0.0
 11
54.319572027534882
 21
182.87751879489321
 31
0.0
  0
LINE
  5
73
  8
PATTERN_FILL
  6
STYLE_05
 62
     7
 10
265.07551426056682
 20
114.2446876373332
 30
0.0
 11
258.71155322988773
 21
120.60864866801209
 31
0.0
  0
LINE
  5
74
  8
PATTERN_FILL
  6
STYLE_05
 62
     7
 10
273.84363834727981
 20
122.44712629909711
 30
0.0
 11
266.91399189165168
 21
129.37677275472529
 31
0.0
  0
LINE
  5
75
  8
PATTERN_FILL
  6
STYLE_05
 62
     7
 10
258.71155322988773
 20
120.60864866801209
 30
0.0
 11
266.91399189165168
 21
129.37677275472529
 31
0.0
  0
LINE
  5
76
  8
PATTERN_FILL
  6
STYLE_05
 62
     7
 10
265.07551426056682
 20
114.2446876373332
 30
0.0
 11
273.84363834727981
 21
122.44712629909711
 31
0.0
  0
LINE
  5
77
  8
PATTERN_FILL
  6
STYLE_05
 62
     7
 10
286.57156040863782
 20
135.17504836045489
 30
0.0
 11
279.64191395300958
 21
142.10469481608311
 31
0.0
  0
LINE
  5
78
  8
PATTERN_FILL
  6
STYLE_05
 62
     7
 10
266.91399189165168
 20
129.37677275472529
 30
0.0
 11
288.27146222460749
 21
150.73424308768111
 31
0.0
  0
LINE
  5
79
  8
PATTERN_FILL
  6
STYLE_05
 62
     7
 10
273.84363834727981
 20
122.44712629909711
 30
0.0
 11
294.37864651664802
 21
142.9821344684652
 31
0.0
  0
LINE
  5
7A
  8
PATTERN_FILL
  6
STYLE_05
 62
     7
 10
258.21657848305728
 20
117.9216428995032
 30
0.0
 11
263.06025993418513
 21
114.4214643326298
 31
0.0
  0
LINE
  5
7B
  8
PATTERN_FILL
  6
STYLE_05
 62
     7
 10
294.17295830660532
 20
139.9480191336763
 30
0.0
 11
307.0776570630477
 21
152.8527178901187
 31
0.0
  0
LINE
  5
7C
  8
PATTERN_FILL
  6
STYLE_05
 62
     7
 10
286.1069913267076
 20
157.55002831085019
 30
0.0
 11
291.0666381433312
 21
162.509675127474
 31
0.0
  0
ARC
  5
7D
  8
PATTERN_FILL
  6
STYLE_05
 62
     7
 10
287.64141921134018
 20
143.1434984347139
 30
0.0
 40
20.019411788534921
 50
57.966433529302179
 51
78.015348125791334
  0
ARC
  5
7E
  8
PATTERN_FILL
  6
STYLE_05
 62
     7
 10
263.36189303254667
 20
108.7565732367494
 30
0.0
 40
62.092978653478291
 50
45.248190345822103
 51
55.803669009626717
  0
ARC
  5
7F
  8
PATTERN_FILL
  6
STYLE_05
 62
     7
 10
305.47316801946772
 20
160.97524724284139
 30
0.0
 40
20.01941178853497
 50
191.98465187420879
 51
212.03356647069791
  0
ARC
  5
80
  8
PATTERN_FILL
  6
STYLE_05
 62
     7
 10
339.86009321743222
 20
185.25477342163489
 30
0.0
 40
62.092978653478241
 50
214.1963309903733
 51
224.75180965417789
  0
ARC
  5
81
  8
PATTERN_FILL
  6
STYLE_05
 62
     7
 10
291.63232356828053
 20
161.9439897025247
 30
0.0
 40
0.7999999999999965
 50
78.015348125788563
 51
134.99999999999571
  0
ARC
  5
82
  8
PATTERN_FILL
  6
STYLE_05
 62
     7
 10
286.6726767516567
 20
156.98434288590099
 30
0.0
 40
0.7999999999999381
 50
134.99999999999571
 51
191.9846518742101
  0
LINE
  5
83
  8
PATTERN_FILL
  6
STYLE_05
 62
     7
 10
294.17295830660532
 20
139.9480191336763
 30
0.0
 11
292.75874474423222
 21
141.3622326960494
 31
0.0
  0
LINE
  5
84
  8
PATTERN_FILL
  6
STYLE_05
 62
     7
 10
299.61768052174182
 20
152.46380916067821
 30
0.0
 11
301.80971154342012
 21
154.65584018235651
 31
0.0
  0
LINE
  5
85
  8
PATTERN_FILL
  6
STYLE_05
 62
     7
 10
291.62737389433369
 20
159.95914104125549
 30
0.0
 11
292.6222730619416
 21
160.95404020886349
 31
0.0
  0
ARC
  5
86
  8
PATTERN_FILL
  6
STYLE_05
 62
     7
 10
277.68578490497509
 20
129.3154387123669
 30
0.0
 40
34.987137395296131
 50
46.40878952305161
 51
64.728145584863611
  0
ARC
  5
87
  8
PATTERN_FILL
  6
STYLE_05
 62
     7
 10
367.5777132605113
 20
232.9184187229433
 30
0.0
 40
105.3162392495627
 50
223.849287427999
 51
229.81220986805189
  0
LINE
  5
88
  8
PATTERN_FILL
  6
STYLE_05
 62
     7
 10
296.15285729350342
 20
148.99898593243981
 30
0.0
 11
293.960826271825
 21
146.8069549107615
 31
0.0
  0
LINE
  5
89
  8
PATTERN_FILL
  6
STYLE_05
 62
     7
 10
288.65752541292602
 20
156.9892925598478
 30
0.0
 11
287.66262624531799
 21
155.99439339223991
 31
0.0
  0
ARC
  5
8A
  8
PATTERN_FILL
  6
STYLE_05
 62
     7
 10
319.30122774181473
 20
170.9308815492065
 30
0.0
 40
34.987137395296109
 50
205.2718544151364
 51
223.59121047694839
  0
ARC
  5
8B
  8
PATTERN_FILL
  6
STYLE_05
 62
     7
 10
215.69824773123821
 20
81.038953193670295
 30
0.0
 40
105.3162392495628
 50
40.187790131948127
 51
46.150712572000977
  0
CIRCLE
  5
8C
  8
PATTERN_FILL
  6
CONTINUOUS
 62
     7
 10
56.505000000363388
 20
179.58716857408419
 30
0.0
 40
8.0000000000000409
  0
CIRCLE
  5
8D
  8
PATTERN_FILL
  6
CONTINUOUS
 62
     7
 10
56.505000000363388
 20
179.58716857408419
 30
0.0
 40
3.9500000000000082
  0
CIRCLE
  5
8E
  8
PATTERN_FILL
  6
CONTINUOUS
 62
     7
 10
56.505000000363388
 20
179.58716857408419
 30
0.0
 40
5.8499999999999819
  0
LINE
  5
8F
  8
PATTERN_FILL
  6
CONTINUOUS
 62
     7
 10
60.951465984370607
 20
183.38867357251141
 30
0.0
 11
62.073101932151147
 21
185.33140402166299
 31
0.0
  0
LINE
  5
90
  8
PATTERN_FILL
  6
CONTINUOUS
 62
     7
 10
57.573966909611279
 20
185.3386735725114
 30
0.0
 11
58.695602857391883
 21
187.28140402166301
 31
0.0
  0
LINE
  5
91
  8
PATTERN_FILL
  6
CONTINUOUS
 62
     7
 10
55.436033091115583
 20
185.33867357251111
 30
0.0
 11
54.314397143334702
 21
187.28140402166329
 31
0.0
  0
LINE
  5
92
  8
PATTERN_FILL
  6
CONTINUOUS
 62
     7
 10
52.058534016355893
 20
183.38867357251189
 30
0.0
 11
50.936898068575211
 21
185.3314040216637
 31
0.0
  0
LINE
  5
93
  8
PATTERN_FILL
  6
CONTINUOUS
 62
     7
 10
62.02043289361913
 20
181.53716857408409
 30
0.0
 11
64.2637047891794
 21
181.53716857408409
 31
0.0
  0
LINE
  5
94
  8
PATTERN_FILL
  6
CONTINUOUS
 62
     7
 10
62.020432893618221
 20
177.6371685740842
 30
0.0
 11
64.263704789178703
 21
177.6371685740842
 31
0.0
  0
LINE
  5
95
  8
PATTERN_FILL
  6
CONTINUOUS
 62
     7
 10
60.9514659843705
 20
175.78566357565711
 30
0.0
 11
62.073101932151381
 21
173.84293312650479
 31
0.0
  0
LINE
  5
96
  8
PATTERN_FILL
  6
CONTINUOUS
 62
     7
 10
57.573966909611691
 20
173.83566357565641
 30
0.0
 11
58.695602857392331
 21
171.8929331265046
 31
0.0
  0
LINE
  5
97
  8
PATTERN_FILL
  6
CONTINUOUS
 62
     7
 10
54.314397143334922
 20
171.89293312650531
 30
0.0
 11
55.436033091115462
 21
173.83566357565701
 31
0.0
  0
LINE
  5
98
  8
PATTERN_FILL
  6
CONTINUOUS
 62
     7
 10
50.93689806857558
 20
173.8429331265053
 30
0.0
 11
52.058534016356177
 21
175.78566357565691
 31
0.0
  0
LINE
  5
99
  8
PATTERN_FILL
  6
CONTINUOUS
 62
     7
 10
48.746295211548023
 20
177.6371685740842
 30
0.0
 11
50.989567107108449
 21
177.6371685740842
 31
0.0
  0
LINE
  5
9A
  8
PATTERN_FILL
  6
CONTINUOUS
 62
     7
 10
48.746295211547327
 20
181.53716857408409
 30
0.0
 11
50.989567107107661
 21
181.53716857408409
 31
0.0
  0
LINE
  5
9B
  8
PATTERN_FILL
  6
STYLE_05
 62
     7
 10
-11.10788568260673
 20
139.40192378864671
 30
0.0
 11
-18.90211431666668
 21
134.90192378864671
 31
0.0
  0
LINE
  5
9C
  8
PATTERN_FILL
  6
STYLE_05
 62
     7
 10
-16.761475521092962
 20
149.99422863405991
 30
0.0
 11
-25.248524478180482
 21
145.0942286340599
 31
0.0
  0
LINE
  5
9D
  8
PATTERN_FILL
  6
STYLE_05
 62
     7
 10
-18.90211431666668
 20
134.90192378864671
 30
0.0
 11
-25.248524478180482
 21
145.0942286340599
 31
0.0
  0
LINE
  5
9E
  8
PATTERN_FILL
  6
STYLE_05
 62
     7
 10
-11.10788568260673
 20
139.40192378864671
 30
0.0
 11
-16.761475521092962
 21
149.99422863405991
 31
0.0
  0
LINE
  5
9F
  8
PATTERN_FILL
  6
STYLE_05
 62
     7
 10
-25.761475521092962
 20
165.5826859021798
 30
0.0
 11
-34.248524478180471
 21
160.6826859021798
 31
0.0
  0
LINE
  5
A0
  8
PATTERN_FILL
  6
STYLE_05
 62
     7
 10
-25.248524478180482
 20
145.0942286340599
 30
0.0
 11
-40.586642127427957
 21
171.66062769502551
 31
0.0
  0
LINE
  5
A1
  8
PATTERN_FILL
  6
STYLE_05
 62
     7
 10
-16.761475521092962
 20
149.99422863405991
 30
0.0
 11
-32.099593170340469
 21
176.56062769502549
 31
0.0
  0
CIRCLE
  5
A2
  8
PATTERN_FILL
  6
CONTINUOUS
 62
     7
 10
-39.504999999636702
 20
179.58716857408419
 30
0.0
 40
8.0000000000000142
  0
CIRCLE
  5
A3
  8
PATTERN_FILL
  6
CONTINUOUS
 62
     7
 10
-39.504999999636702
 20
179.58716857408419
 30
0.0
 40
3.9499999999999962
  0
CIRCLE
  5
A4
  8
PATTERN_FILL
  6
CONTINUOUS
 62
     7
 10
-39.504999999636702
 20
179.58716857408419
 30
0.0
 40
5.8499999999999641
  0
LINE
  5
A5
  8
PATTERN_FILL
  6
CONTINUOUS
 62
     7
 10
-43.951465983643892
 20
183.38867357251141
 30
0.0
 11
-45.073101931424418
 21
185.33140402166299
 31
0.0
  0
LINE
  5
A6
  8
PATTERN_FILL
  6
CONTINUOUS
 62
     7
 10
-40.573966908884572
 20
185.3386735725114
 30
0.0
 11
-41.695602856665147
 21
187.28140402166301
 31
0.0
  0
LINE
  5
A7
  8
PATTERN_FILL
  6
CONTINUOUS
 62
     7
 10
-38.436033090388882
 20
185.33867357251111
 30
0.0
 11
-37.314397142608001
 21
187.28140402166329
 31
0.0
  0
LINE
  5
A8
  8
PATTERN_FILL
  6
CONTINUOUS
 62
     7
 10
-35.05853401562922
 20
183.38867357251189
 30
0.0
 11
-33.936898067848531
 21
185.3314040216637
 31
0.0
  0
LINE
  5
A9
  8
PATTERN_FILL
  6
CONTINUOUS
 62
     7
 10
-45.020432892892401
 20
181.53716857408409
 30
0.0
 11
-47.263704788452671
 21
181.53716857408409
 31
0.0
  0
LINE
  5
AA
  8
PATTERN_FILL
  6
CONTINUOUS
 62
     7
 10
-45.020432892891492
 20
177.6371685740842
 30
0.0
 11
-47.263704788452003
 21
177.6371685740842
 31
0.0
  0
LINE
  5
AB
  8
PATTERN_FILL
  6
CONTINUOUS
 62
     7
 10
-43.951465983643779
 20
175.78566357565711
 30
0.0
 11
-45.073101931424652
 21
173.84293312650479
 31
0.0
  0
LINE
  5
AC
  8
PATTERN_FILL
  6
CONTINUOUS
 62
     7
 10
-40.573966908884969
 20
173.83566357565641
 30
0.0
 11
-41.695602856665623
 21
171.8929331265046
 31
0.0
  0
LINE
  5
AD
  8
PATTERN_FILL
  6
CONTINUOUS
 62
     7
 10
-37.314397142608229
 20
171.89293312650531
 30
0.0
 11
-38.436033090388761
 21
173.83566357565701
 31
0.0
  0
LINE
  5
AE
  8
PATTERN_FILL
  6
CONTINUOUS
 62
     7
 10
-33.936898067848901
 20
173.8429331265053
 30
0.0
 11
-35.05853401562949
 21
175.78566357565691
 31
0.0
  0
LINE
  5
AF
  8
PATTERN_FILL
  6
CONTINUOUS
 62
     7
 10
-31.746295210821341
 20
177.6371685740842
 30
0.0
 11
-33.989567106381791
 21
177.6371685740842
 31
0.0
  0
LINE
  5
B0
  8
PATTERN_FILL
  6
CONTINUOUS
 62
     7
 10
-31.746295210820669
 20
181.53716857408409
 30
0.0
 11
-33.989567106380989
 21
181.53716857408409
 31
0.0
  0
LINE
  5
B1
  8
PATTERN_FILL
  6
STYLE_05
 62
     7
 10
-16.434774940800789
 20
133.72836663013169
 30
0.0
 11
-11.80022505847262
 21
137.50109076372689
 31
0.0
  0
LINE
  5
B2
  8
PATTERN_FILL
  6
STYLE_05
 62
     7
 10
28.107885683333311
 20
139.40192378864671
 30
0.0
 11
35.902114317393277
 21
134.90192378864671
 31
0.0
  0
LINE
  5
B3
  8
PATTERN_FILL
  6
STYLE_05
 62
     7
 10
33.76147552181957
 20
149.99422863405991
 30
0.0
 11
42.248524478907107
 21
145.0942286340599
 31
0.0
  0
LINE
  5
B4
  8
PATTERN_FILL
  6
STYLE_05
 62
     7
 10
35.902114317393277
 20
134.90192378864671
 30
0.0
 11
42.248524478907107
 21
145.0942286340599
 31
0.0
  0
LINE
  5
B5
  8
PATTERN_FILL
  6
STYLE_05
 62
     7
 10
28.107885683333311
 20
139.40192378864671
 30
0.0
 11
33.76147552181957
 21
149.99422863405991
 31
0.0
  0
LINE
  5
B6
  8
PATTERN_FILL
  6
STYLE_05
 62
     7
 10
42.761475521819591
 20
165.5826859021798
 30
0.0
 11
51.248524478907143
 21
160.6826859021798
 31
0.0
  0
LINE
  5
B7
  8
PATTERN_FILL
  6
STYLE_05
 62
     7
 10
27.434774941527358
 20
123.3360617847184
 30
0.0
 11
22.800225059199189
 21
127.1087859183136
 31
0.0
  0
LINE
  5
B8
  8
PATTERN_FILL
  6
STYLE_05
 62
     7
 10
28.434774941527358
 20
125.06811259228731
 30
0.0
 11
23.800225059199189
 21
128.8408367258825
 31
0.0
  0
LINE
  5
B9
  8
PATTERN_FILL
  6
STYLE_05
 62
     7
 10
29.434774941527358
 20
126.8001633998562
 30
0.0
 11
24.800225059199189
 21
130.57288753345139
 31
0.0
  0
LINE
  5
BA
  8
PATTERN_FILL
  6
STYLE_05
 62
     7
 10
30.43477494152738
 20
128.53221420742511
 30
0.0
 11
25.800225059199189
 21
132.30493834102029
 31
0.0
  0
LINE
  5
BB
  8
PATTERN_FILL
  6
STYLE_05
 62
     7
 10
31.43477494152738
 20
130.2642650149939
 30
0.0
 11
26.800225059199189
 21
134.0369891485891
 31
0.0
  0
LINE
  5
BC
  8
PATTERN_FILL
  6
STYLE_05
 62
     7
 10
32.43477494152738
 20
131.99631582256279
 30
0.0
 11
27.800225059199189
 21
135.769039956158
 31
0.0
  0
LINE
  5
BD
  8
PATTERN_FILL
  6
STYLE_05
 62
     7
 10
33.434774941527401
 20
133.72836663013169
 30
0.0
 11
28.800225059199189
 21
137.50109076372689
 31
0.0
  0
LINE
  5
BE
  8
PATTERN_FILL
  6
STYLE_05
 62
     7
 10
42.248524478907107
 20
145.0942286340599
 30
0.0
 11
57.586642128154672
 21
171.66062769502551
 31
0.0
  0
LINE
  5
BF
  8
PATTERN_FILL
  6
STYLE_05
 62
     7
 10
33.76147552181957
 20
149.99422863405991
 30
0.0
 11
49.099593171067141
 21
176.56062769502549
 31
0.0
  0
LINE
  5
C0
  8
PATTERN_FILL
  6
STYLE_05
 62
     7
 10
2.1796774817183571
 20
101.48718927925491
 30
0.0
 11
-17.559774940800789
 21
135.67692378864669
 31
0.0
  0
LINE
  5
C1
  8
PATTERN_FILL
  6
STYLE_05
 62
     7
 10
-12.45022505847262
 20
138.62692378864659
 30
0.0
 11
8.5000000003632596
 21
102.3400695567402
 31
0.0
  0
LINE
  5
C2
  8
PATTERN_FILL
  6
STYLE_05
 62
     7
 10
-4.4347749408007919
 20
112.9437569393052
 30
0.0
 11
0.1997749415273518
 21
116.71648107290039
 31
0.0
  0
LINE
  5
C3
  8
PATTERN_FILL
  6
STYLE_05
 62
     7
 10
-6.4347749408007919
 20
116.4078585544429
 30
0.0
 11
-1.800225058472648
 21
120.1805826880381
 31
0.0
  0
LINE
  5
C4
  8
PATTERN_FILL
  6
STYLE_05
 62
     7
 10
-7.4347749408007928
 20
118.13990936201181
 30
0.0
 11
-2.8002250584726469
 21
121.912633495607
 31
0.0
  0
LINE
  5
C5
  8
PATTERN_FILL
  6
STYLE_05
 62
     7
 10
-8.4347749408007928
 20
119.8719601695807
 30
0.0
 11
-3.8002250584726469
 21
123.64468430317589
 31
0.0
  0
LINE
  5
C6
  8
PATTERN_FILL
  6
STYLE_05
 62
     7
 10
-9.4347749408007928
 20
121.6040109771496
 30
0.0
 11
-4.8002250584726189
 21
125.3767351107448
 31
0.0
  0
LINE
  5
C7
  8
PATTERN_FILL
  6
STYLE_05
 62
     7
 10
-10.434774940800789
 20
123.3360617847184
 30
0.0
 11
-5.8002250584726189
 21
127.1087859183136
 31
0.0
  0
LINE
  5
C8
  8
PATTERN_FILL
  6
STYLE_05
 62
     7
 10
-11.434774940800789
 20
125.06811259228731
 30
0.0
 11
-6.8002250584726189
 21
128.8408367258825
 31
0.0
  0
LINE
  5
C9
  8
PATTERN_FILL
  6
STYLE_05
 62
     7
 10
-12.434774940800789
 20
126.8001633998562
 30
0.0
 11
-7.8002250584726198
 21
130.57288753345139
 31
0.0
  0
LINE
  5
CA
  8
PATTERN_FILL
  6
STYLE_05
 62
     7
 10
-13.434774940800789
 20
128.53221420742511
 30
0.0
 11
-8.8002250584726216
 21
132.30493834102029
 31
0.0
  0
LINE
  5
CB
  8
PATTERN_FILL
  6
STYLE_05
 62
     7
 10
-14.434774940800789
 20
130.2642650149939
 30
0.0
 11
-9.8002250584726216
 21
134.0369891485891
 31
0.0
  0
LINE
  5
CC
  8
PATTERN_FILL
  6
STYLE_05
 62
     7
 10
-15.434774940800789
 20
131.99631582256279
 30
0.0
 11
-10.80022505847262
 21
135.769039956158
 31
0.0
  0
ARC
  5
CD
  8
PATTERN_FILL
  6
STYLE_05
 62
     7
 10
-50.022026550996721
 20
82.017347718561723
 30
0.0
 40
55.882831020408808
 50
6.0941382452662811
 51
18.38285327402108
  0
LINE
  5
CE
  8
PATTERN_FILL
  6
STYLE_05
 62
     7
 10
-5.4347749408007919
 20
114.675807746874
 30
0.0
 11
-0.8002250584726482
 21
118.4485318804692
 31
0.0
  0
ARC
  5
CF
  8
PATTERN_FILL
  6
CONTINUOUS
 62
     7
 10
-6.480576556125782
 20
96.487189279255091
 30
0.0
 40
9.9999999999997193
 50
18.382853274020722
 51
30.0
  0
LINE
  5
D0
  8
PATTERN_FILL
  6
STYLE_05
 62
     7
 10
24.434774941527358
 20
118.13990936201181
 30
0.0
 11
19.800225059199221
 21
121.912633495607
 31
0.0
  0
LINE
  5
D1
  8
PATTERN_FILL
  6
STYLE_05
 62
     7
 10
25.434774941527358
 20
119.8719601695807
 30
0.0
 11
20.800225059199221
 21
123.64468430317589
 31
0.0
  0
LINE
  5
D2
  8
PATTERN_FILL
  6
STYLE_05
 62
     7
 10
26.434774941527358
 20
121.6040109771496
 30
0.0
 11
21.800225059199189
 21
125.3767351107448
 31
0.0
  0
LINE
  5
D3
  8
PATTERN_FILL
  6
STYLE_05
 62
     7
 10
14.82032251900821
 20
101.48718927925491
 30
0.0
 11
34.559774941527387
 21
135.67692378864669
 31
0.0
  0
LINE
  5
D4
  8
PATTERN_FILL
  6
STYLE_05
 62
     7
 10
29.450225059199202
 20
138.62692378864659
 30
0.0
 11
8.5000000003633112
 21
102.3400695567402
 31
0.0
  0
LINE
  5
D5
  8
PATTERN_FILL
  6
STYLE_05
 62
     7
 10
21.434774941527369
 20
112.9437569393052
 30
0.0
 11
16.800225059199221
 21
116.71648107290039
 31
0.0
  0
LINE
  5
D6
  8
PATTERN_FILL
  6
STYLE_05
 62
     7
 10
22.434774941527358
 20
114.675807746874
 30
0.0
 11
17.80022505919921
 21
118.4485318804692
 31
0.0
  0
LINE
  5
D7
  8
PATTERN_FILL
  6
STYLE_05
 62
     7
 10
23.434774941527358
 20
116.4078585544429
 30
0.0
 11
18.800225059199221
 21
120.1805826880381
 31
0.0
  0
ARC
  5
D8
  8
PATTERN_FILL
  6
STYLE_05
 62
     7
 10
-13.477607413788199
 20
89.960759096131554
 30
0.0
 40
25.224245382777571
 50
8.8696254012872409
 51
29.391223706135548
  0
ARC
  5
D9
  8
PATTERN_FILL
  6
STYLE_05
 62
     7
 10
67.022026551723485
 20
82.017347718561723
 30
0.0
 40
55.882831020408972
 50
161.6171467259789
 51
173.90586175473371
  0
ARC
  5
DA
  8
PATTERN_FILL
  6
STYLE_05
 62
     7
 10
30.4776074145148
 20
89.960759096131554
 30
0.0
 40
25.224245382777589
 50
150.60877629386439
 51
171.13037459871279
  0
LINE
  5
DB
  8
PATTERN_FILL
  6
STYLE_05
 62
     7
 10
148.52500000035599
 20
74.745000000741683
 30
0.0
 11
148.52500000035599
 21
65.745000000741683
 31
0.0
  0
LINE
  5
DC
  8
PATTERN_FILL
  6
STYLE_05
 62
     7
 10
136.52500000035599
 20
75.145000000741703
 30
0.0
 11
136.52500000035599
 21
65.345000000741663
 31
0.0
  0
LINE
  5
DD
  8
PATTERN_FILL
  6
STYLE_05
 62
     7
 10
148.52500000035599
 20
65.745000000741683
 30
0.0
 11
136.52500000035599
 21
65.345000000741663
 31
0.0
  0
LINE
  5
DE
  8
PATTERN_FILL
  6
STYLE_05
 62
     7
 10
148.52500000035599
 20
74.745000000741683
 30
0.0
 11
136.52500000035599
 21
75.145000000741703
 31
0.0
  0
LINE
  5
DF
  8
PATTERN_FILL
  6
STYLE_05
 62
     7
 10
118.525000000356
 20
75.145000000741703
 30
0.0
 11
118.525000000356
 21
65.345000000741663
 31
0.0
  0
LINE
  5
E0
  8
PATTERN_FILL
  6
STYLE_05
 62
     7
 10
136.52500000035599
 20
65.345000000741663
 30
0.0
 11
106.32097579750879
 21
65.345000000741663
 31
0.0
  0
LINE
  5
E1
  8
PATTERN_FILL
  6
STYLE_05
 62
     7
 10
136.52500000035599
 20
75.145000000741703
 30
0.0
 11
107.48411294379331
 21
75.145000000741703
 31
0.0
  0
LINE
  5
E2
  8
PATTERN_FILL
  6
STYLE_05
 62
     7
 10
158.77500000035599
 20
67.295000000741695
 30
0.0
 11
157.825000000356
 21
73.195000000741658
 31
0.0
  0
LINE
  5
E3
  8
PATTERN_FILL
  6
STYLE_05
 62
     7
 10
156.77500000035599
 20
67.295000000741695
 30
0.0
 11
155.825000000356
 21
73.195000000741658
 31
0.0
  0
LINE
  5
E4
  8
PATTERN_FILL
  6
STYLE_05
 62
     7
 10
154.77500000035599
 20
67.295000000741695
 30
0.0
 11
153.825000000356
 21
73.195000000741658
 31
0.0
  0
LINE
  5
E5
  8
PATTERN_FILL
  6
STYLE_05
 62
     7
 10
152.77500000035599
 20
67.295000000741695
 30
0.0
 11
151.825000000356
 21
73.195000000741658
 31
0.0
  0
LINE
  5
E6
  8
PATTERN_FILL
  6
STYLE_05
 62
     7
 10
150.77500000035599
 20
67.295000000741695
 30
0.0
 11
149.825000000356
 21
73.195000000741658
 31
0.0
  0
LINE
  5
E7
  8
PATTERN_FILL
  6
STYLE_05
 62
     7
 10
109.775000000056
 20
77.145000000741703
 30
0.0
 11
91.525000000355988
 21
77.145000000741703
 31
0.0
  0
LINE
  5
E8
  8
PATTERN_FILL
  6
STYLE_05
 62
     7
 10
103.0319998966809
 20
58.995000000741683
 30
0.0
 11
96.018000104031103
 21
58.995000000741683
 31
0.0
  0
ARC
  5
E9
  8
PATTERN_FILL
  6
STYLE_05
 62
     7
 10
112.1339505029981
 20
70.266959331989696
 30
0.0
 40
20.01941178853496
 50
192.96643352930209
 51
213.01534812579109
  0
ARC
  5
EA
  8
PATTERN_FILL
  6
STYLE_05
 62
     7
 10
153.61739609965451
 20
77.413969718603923
 30
0.0
 40
62.092978653478312
 50
180.24819034582211
 51
190.80366900962679
  0
ARC
  5
EB
  8
PATTERN_FILL
  6
STYLE_05
 62
     7
 10
86.916049497713928
 20
70.266959331989696
 30
0.0
 40
20.019411788534921
 50
326.98465187420891
 51
347.03356647069779
  0
ARC
  5
EC
  8
PATTERN_FILL
  6
STYLE_05
 62
     7
 10
45.432603901057313
 20
77.413969718603923
 30
0.0
 40
62.092978653478461
 50
349.19633099037321
 51
359.75180965417792
  0
ARC
  5
ED
  8
PATTERN_FILL
  6
STYLE_05
 62
     7
 10
96.018000104031103
 20
59.795000000741702
 30
0.0
 40
0.7999999999999754
 50
213.01534812579089
 51
270.0
  0
ARC
  5
EE
  8
PATTERN_FILL
  6
STYLE_05
 62
     7
 10
103.0319998966809
 20
59.795000000741702
 30
0.0
 40
0.8000000000000113
 50
270.0
 51
326.98465187420919
  0
LINE
  5
EF
  8
PATTERN_FILL
  6
STYLE_05
 62
     7
 10
109.775000000056
 20
77.145000000741703
 30
0.0
 11
109.775000000056
 21
75.145000000741703
 31
0.0
  0
LINE
  5
F0
  8
PATTERN_FILL
  6
STYLE_05
 62
     7
 10
97.075000000055994
 20
72.145000000741703
 30
0.0
 11
93.975000000055985
 21
72.145000000741703
 31
0.0
  0
LINE
  5
F1
  8
PATTERN_FILL
  6
STYLE_05
 62
     7
 10
97.425000000056002
 20
61.1950000007417
 30
0.0
 11
96.018000104031103
 21
61.1950000007417
 31
0.0
  0
ARC
  5
F2
  8
PATTERN_FILL
  6
STYLE_05
 62
     7
 10
128.95156183236639
 20
73.00517760326963
 30
0.0
 40
34.98713739529606
 50
181.40878952305161
 51
199.7281455848636
  0
ARC
  5
F3
  8
PATTERN_FILL
  6
STYLE_05
 62
     7
 10
-7.8699999983816431
 20
63.310000000791703
 30
0.0
 40
105.316239249563
 50
358.84928742799889
 51
4.8122098680518652
  0
LINE
  5
F4
  8
PATTERN_FILL
  6
STYLE_05
 62
     7
 10
101.975000000656
 20
72.145000000741703
 30
0.0
 11
105.075000000656
 21
72.145000000741703
 31
0.0
  0
LINE
  5
F5
  8
PATTERN_FILL
  6
STYLE_05
 62
     7
 10
101.625000000656
 20
61.1950000007417
 30
0.0
 11
103.0319998966809
 21
61.1950000007417
 31
0.0
  0
ARC
  5
F6
  8
PATTERN_FILL
  6
STYLE_05
 62
     7
 10
70.098438168345552
 20
73.00517760326963
 30
0.0
 40
34.987137395296138
 50
340.27185441513649
 51
358.59121047694839
  0
ARC
  5
F7
  8
PATTERN_FILL
  6
STYLE_05
 62
     7
 10
206.91999999909319
 20
63.310000000791703
 30
0.0
 40
105.3162392495625
 50
175.18779013194811
 51
181.150712572001
  0
LINE
  5
F8
  8
PATTERN_FILL
  6
STYLE_05
 62
     7
 10
236.5250000003559
 20
76.045000000741695
 30
0.0
 11
236.5250000003559
 21
64.445000000741672
 31
0.0
  0
LINE
  5
F9
  8
PATTERN_FILL
  6
STYLE_05
 62
     7
 10
235.5250000003559
 20
76.045000000741695
 30
0.0
 11
236.5250000003559
 21
76.045000000741695
 31
0.0
  0
LINE
  5
FA
  8
PATTERN_FILL
  6
STYLE_05
 62
     7
 10
236.5250000003559
 20
64.445000000741672
 30
0.0
 11
235.5250000003559
 21
64.445000000741672
 31
0.0
  0
LINE
  5
FB
  8
PATTERN_FILL
  6
STYLE_05
 62
     7
 10
235.5250000003559
 20
63.245000000741683
 30
0.0
 11
235.5250000003559
 21
77.245000000741683
 31
0.0
  0
LINE
  5
FC
  8
PATTERN_FILL
  6
STYLE_05
 62
     7
 10
232.7607343603415
 20
92.465798776787508
 30
0.0
 11
237.60441581146941
 21
88.965620209914078
 31
0.0
  0
LINE
  5
FD
  8
PATTERN_FILL
  6
STYLE_05
 62
     7
 10
234.17494792271461
 20
93.880012339160601
 30
0.0
 11
239.0186293738424
 21
90.379833772287185
 31
0.0
  0
LINE
  5
FE
  8
PATTERN_FILL
  6
STYLE_05
 62
     7
 10
235.58916148508769
 20
95.294225901533693
 30
0.0
 11
240.43284293621559
 21
91.794047334660263
 31
0.0
  0
LINE
  5
FF
  8
PATTERN_FILL
  6
STYLE_05
 62
     7
 10
237.00337504746079
 20
96.708439463906814
 30
0.0
 11
241.8470564985887
 21
93.208260897033412
 31
0.0
  0
LINE
  5
100
  8
PATTERN_FILL
  6
STYLE_05
 62
     7
 10
238.4175886098339
 20
98.122653026279863
 30
0.0
 11
243.26127006096169
 21
94.622474459406504
 31
0.0
  0
LINE
  5
101
  8
PATTERN_FILL
  6
STYLE_05
 62
     7
 10
239.83180217220701
 20
99.536866588653012
 30
0.0
 11
244.67548362333491
 21
96.036688021779582
 31
0.0
  0
LINE
  5
102
  8
PATTERN_FILL
  6
STYLE_05
 62
     7
 10
241.24601573458011
 20
100.95108015102601
 30
0.0
 11
246.08969718570799
 21
97.450901584152675
 31
0.0
  0
LINE
  5
103
  8
PATTERN_FILL
  6
STYLE_05
 62
     7
 10
242.66022929695319
 20
102.3652937133991
 30
0.0
 11
247.5039107480811
 21
98.865115146525767
 31
0.0
  0
LINE
  5
104
  8
PATTERN_FILL
  6
STYLE_05
 62
     7
 10
244.07444285932641
 20
103.7795072757722
 30
0.0
 11
248.9181243104542
 21
100.2793287088989
 31
0.0
  0
LINE
  5
105
  8
PATTERN_FILL
  6
STYLE_05
 62
     7
 10
245.48865642169949
 20
105.1937208381453
 30
0.0
 11
250.3323378728272
 21
101.69354227127199
 31
0.0
  0
LINE
  5
106
  8
PATTERN_FILL
  6
STYLE_05
 62
     7
 10
246.9028699840724
 20
106.6079344005185
 30
0.0
 11
251.7465514352003
 21
103.107755833645
 31
0.0
  0
LINE
  5
107
  8
PATTERN_FILL
  6
STYLE_05
 62
     7
 10
248.31708354644559
 20
108.02214796289159
 30
0.0
 11
253.1607649975733
 21
104.52196939601809
 31
0.0
  0
LINE
  5
108
  8
PATTERN_FILL
  6
STYLE_05
 62
     7
 10
249.73129710881861
 20
109.4363615252646
 30
0.0
 11
254.57497855994649
 21
105.9361829583912
 31
0.0
  0
LINE
  5
109
  8
PATTERN_FILL
  6
STYLE_05
 62
     7
 10
251.14551067119169
 20
110.85057508763769
 30
0.0
 11
255.98919212231959
 21
107.35039652076431
 31
0.0
  0
LINE
  5
10A
  8
PATTERN_FILL
  6
STYLE_05
 62
     7
 10
252.55972423356479
 20
112.2647886500108
 30
0.0
 11
257.4034056846927
 21
108.7646100831374
 31
0.0
  0
LINE
  5
10B
  8
PATTERN_FILL
  6
STYLE_05
 62
     7
 10
253.97393779593801
 20
113.67900221238391
 30
0.0
 11
258.81761924706581
 21
110.17882364551051
 31
0.0
  0
LINE
  5
10C
  8
PATTERN_FILL
  6
STYLE_05
 62
     7
 10
255.38815135831101
 20
115.093215774757
 30
0.0
 11
260.2318328094388
 21
111.5930372078836
 31
0.0
  0
LINE
  5
10D
  8
PATTERN_FILL
  6
STYLE_05
 62
     7
 10
256.80236492068423
 20
116.50742933713011
 30
0.0
 11
261.64604637181191
 21
113.0072507702567
 31
0.0
  0
LINE
  5
10E
  8
PATTERN_FILL
  6
STYLE_05
 62
     7
 10
223.745122900213
 20
83.450187316658983
 30
0.0
 11
259.80756874072688
 21
119.5126331571729
 31
0.0
  0
LINE
  5
10F
  8
PATTERN_FILL
  6
STYLE_05
 62
     7
 10
263.97949874972761
 20
115.3407031481723
 30
0.0
 11
227.9170529092136
 21
79.278257307658379
 31
0.0
  0
LINE
  5
110
  8
PATTERN_FILL
  6
STYLE_05
 62
     7
 10
199.5250000003559
 20
67.295000000741695
 30
0.0
 11
148.52500000035599
 21
67.295000000741695
 31
0.0
  0
LINE
  5
111
  8
PATTERN_FILL
  6
STYLE_05
 62
     7
 10
148.52500000035599
 20
73.195000000741658
 30
0.0
 11
199.5250000003559
 21
73.195000000741658
 31
0.0
  0
LINE
  5
112
  8
PATTERN_FILL
  6
STYLE_05
 62
     7
 10
235.5250000003559
 20
63.245000000741683
 30
0.0
 11
223.5250000003559
 21
63.245000000741683
 31
0.0
  0
LINE
  5
113
  8
PATTERN_FILL
  6
STYLE_05
 62
     7
 10
223.5250000003559
 20
77.245000000741683
 30
0.0
 11
235.5250000003559
 21
77.245000000741683
 31
0.0
  0
LINE
  5
114
  8
PATTERN_FILL
  6
STYLE_05
 62
     7
 10
186.77500000035599
 20
67.295000000741695
 30
0.0
 11
185.82500000035591
 21
73.195000000741658
 31
0.0
  0
LINE
  5
115
  8
PATTERN_FILL
  6
STYLE_05
 62
     7
 10
184.77500000035599
 20
67.295000000741695
 30
0.0
 11
183.82500000035591
 21
73.195000000741658
 31
0.0
  0
LINE
  5
116
  8
PATTERN_FILL
  6
STYLE_05
 62
     7
 10
182.7750000003559
 20
67.295000000741695
 30
0.0
 11
181.82500000035591
 21
73.195000000741658
 31
0.0
  0
LINE
  5
117
  8
PATTERN_FILL
  6
STYLE_05
 62
     7
 10
180.77500000035599
 20
67.295000000741695
 30
0.0
 11
179.82500000035591
 21
73.195000000741658
 31
0.0
  0
LINE
  5
118
  8
PATTERN_FILL
  6
STYLE_05
 62
     7
 10
178.77500000035599
 20
67.295000000741695
 30
0.0
 11
177.82500000035591
 21
73.195000000741658
 31
0.0
  0
LINE
  5
119
  8
PATTERN_FILL
  6
STYLE_05
 62
     7
 10
176.77500000035599
 20
67.295000000741695
 30
0.0
 11
175.82500000035591
 21
73.195000000741658
 31
0.0
  0
LINE
  5
11A
  8
PATTERN_FILL
  6
STYLE_05
 62
     7
 10
174.77500000035599
 20
67.295000000741695
 30
0.0
 11
173.825000000356
 21
73.195000000741658
 31
0.0
  0
LINE
  5
11B
  8
PATTERN_FILL
  6
STYLE_05
 62
     7
 10
172.77500000035599
 20
67.295000000741695
 30
0.0
 11
171.825000000356
 21
73.195000000741658
 31
0.0
  0
LINE
  5
11C
  8
PATTERN_FILL
  6
STYLE_05
 62
     7
 10
170.77500000035599
 20
67.295000000741695
 30
0.0
 11
169.82500000035591
 21
73.195000000741658
 31
0.0
  0
LINE
  5
11D
  8
PATTERN_FILL
  6
STYLE_05
 62
     7
 10
168.77500000035599
 20
67.295000000741695
 30
0.0
 11
167.825000000356
 21
73.195000000741658
 31
0.0
  0
LINE
  5
11E
  8
PATTERN_FILL
  6
STYLE_05
 62
     7
 10
166.77500000035599
 20
67.295000000741695
 30
0.0
 11
165.825000000356
 21
73.195000000741658
 31
0.0
  0
LINE
  5
11F
  8
PATTERN_FILL
  6
STYLE_05
 62
     7
 10
164.77500000035599
 20
67.295000000741695
 30
0.0
 11
163.825000000356
 21
73.195000000741658
 31
0.0
  0
LINE
  5
120
  8
PATTERN_FILL
  6
STYLE_05
 62
     7
 10
162.77500000035599
 20
67.295000000741695
 30
0.0
 11
161.825000000356
 21
73.195000000741658
 31
0.0
  0
LINE
  5
121
  8
PATTERN_FILL
  6
STYLE_05
 62
     7
 10
160.77500000035599
 20
67.295000000741695
 30
0.0
 11
159.825000000356
 21
73.195000000741658
 31
0.0
  0
LINE
  5
122
  8
PATTERN_FILL
  6
STYLE_05
 62
     7
 10
229.7201752012393
 20
77.475135015632674
 30
0.0
 11
224.7704277329336
 21
72.525387547326815
 31
0.0
  0
LINE
  5
123
  8
PATTERN_FILL
  6
STYLE_05
 62
     7
 10
216.9922531398814
 20
80.303562140378844
 30
0.0
 11
221.9420006081873
 21
85.253309608684717
 31
0.0
  0
LINE
  5
124
  8
PATTERN_FILL
  6
STYLE_05
 62
     7
 10
229.7201752012393
 20
77.475135015632674
 30
0.0
 11
221.9420006081873
 21
85.253309608684717
 31
0.0
  0
LINE
  5
125
  8
PATTERN_FILL
  6
STYLE_05
 62
     7
 10
224.27545298610281
 20
83.980517402548898
 30
0.0
 11
229.1191344372308
 21
80.480338835675511
 31
0.0
  0
LINE
  5
126
  8
PATTERN_FILL
  6
STYLE_05
 62
     7
 10
225.689666548476
 20
85.394730964922033
 30
0.0
 11
230.5333479996039
 21
81.894552398048617
 31
0.0
  0
LINE
  5
127
  8
PATTERN_FILL
  6
STYLE_05
 62
     7
 10
227.10388011084919
 20
86.808944527295097
 30
0.0
 11
231.94756156197701
 21
83.308765960421724
 31
0.0
  0
LINE
  5
128
  8
PATTERN_FILL
  6
STYLE_05
 62
     7
 10
228.5180936732223
 20
88.223158089668217
 30
0.0
 11
233.36177512435009
 21
84.722979522794787
 31
0.0
  0
LINE
  5
129
  8
PATTERN_FILL
  6
STYLE_05
 62
     7
 10
229.93230723559529
 20
89.637371652041338
 30
0.0
 11
234.7759886867232
 21
86.13719308516788
 31
0.0
  0
LINE
  5
12A
  8
PATTERN_FILL
  6
STYLE_05
 62
     7
 10
231.34652079796851
 20
91.051585214414402
 30
0.0
 11
236.1902022490963
 21
87.551406647541015
 31
0.0
  0
LINE
  5
12B
  8
PATTERN_FILL
  6
STYLE_05
 62
     7
 10
198.7750000003559
 20
67.295000000741695
 30
0.0
 11
197.8250000003558
 21
73.195000000741658
 31
0.0
  0
LINE
  5
12C
  8
PATTERN_FILL
  6
STYLE_05
 62
     7
 10
196.7750000003559
 20
67.295000000741695
 30
0.0
 11
195.8250000003558
 21
73.195000000741658
 31
0.0
  0
LINE
  5
12D
  8
PATTERN_FILL
  6
STYLE_05
 62
     7
 10
194.7750000003559
 20
67.295000000741695
 30
0.0
 11
193.8250000003558
 21
73.195000000741658
 31
0.0
  0
LINE
  5
12E
  8
PATTERN_FILL
  6
STYLE_05
 62
     7
 10
192.7750000003559
 20
67.295000000741695
 30
0.0
 11
191.8250000003558
 21
73.195000000741658
 31
0.0
  0
LINE
  5
12F
  8
PATTERN_FILL
  6
STYLE_05
 62
     7
 10
190.7750000003559
 20
67.295000000741695
 30
0.0
 11
189.82500000035591
 21
73.195000000741658
 31
0.0
  0
LINE
  5
130
  8
PATTERN_FILL
  6
STYLE_05
 62
     7
 10
188.77500000035599
 20
67.295000000741695
 30
0.0
 11
187.82500000035591
 21
73.195000000741658
 31
0.0
  0
LINE
  5
131
  8
PATTERN_FILL
  6
STYLE_05
 62
     7
 10
199.5250000003559
 20
75.745000000741697
 30
0.0
 11
199.5250000003559
 21
64.745000000741683
 31
0.0
  0
LINE
  5
132
  8
PATTERN_FILL
  6
STYLE_05
 62
     7
 10
195.42549631369181
 20
60.858125657748801
 30
0.0
 11
203.91077768793039
 21
69.343407031987383
 31
0.0
  0
LINE
  5
133
  8
PATTERN_FILL
  6
STYLE_05
 62
     7
 10
203.7693563316931
 20
51.100052077374457
 30
0.0
 11
195.5669176699291
 21
59.302490739138413
 31
0.0
  0
LINE
  5
134
  8
PATTERN_FILL
  6
STYLE_05
 62
     7
 10
195.42549631369181
 20
60.858125657748801
 30
0.0
 11
205.3249912503035
 21
50.958630721137141
 31
0.0
  0
LINE
  5
135
  8
PATTERN_FILL
  6
STYLE_05
 62
     7
 10
213.81027262454199
 20
59.443912095375701
 30
0.0
 11
205.3249912503035
 21
50.958630721137141
 31
0.0
  0
LINE
  5
136
  8
PATTERN_FILL
  6
STYLE_05
 62
     7
 10
204.47646311287971
 20
51.80715885856101
 30
0.0
 11
203.7693563316931
 21
51.100052077374457
 31
0.0
  0
LINE
  5
137
  8
PATTERN_FILL
  6
STYLE_05
 62
     7
 10
195.5669176699291
 20
59.302490739138413
 30
0.0
 11
196.27402445111571
 21
60.009597520324959
 31
0.0
  0
LINE
  5
138
  8
PATTERN_FILL
  6
STYLE_05
 62
     7
 10
206.52500000035579
 20
64.745000000741683
 30
0.0
 11
199.5250000003559
 21
64.745000000741683
 31
0.0
  0
LINE
  5
139
  8
PATTERN_FILL
  6
STYLE_05
 62
     7
 10
206.52500000035579
 20
64.745000000741683
 30
0.0
 11
206.52500000035579
 21
75.755000000741703
 31
0.0
  0
LINE
  5
13A
  8
PATTERN_FILL
  6
STYLE_05
 62
     7
 10
213.81027262454199
 20
59.443912095375701
 30
0.0
 11
203.91077768793039
 21
69.343407031987383
 31
0.0
  0
LINE
  5
13B
  8
PATTERN_FILL
  6
STYLE_05
 62
     7
 10
204.2643310785237
 20
68.989853641394106
 30
0.0
 11
207.6708377988995
 21
72.396360361769936
 31
0.0
  0
LINE
  5
13C
  8
PATTERN_FILL
  6
STYLE_05
 62
     7
 10
223.5250000003559
 20
77.245000000741683
 30
0.0
 11
223.5250000003559
 21
63.245000000741683
 31
0.0
  0
LINE
  5
13D
  8
PATTERN_FILL
  6
STYLE_05
 62
     7
 10
223.5250000003559
 20
63.745000000741683
 30
0.0
 11
218.70747199608519
 21
63.745000000741683
 31
0.0
  0
LINE
  5
13E
  8
PATTERN_FILL
  6
STYLE_05
 62
     7
 10
218.7250810800405
 20
76.745000000741697
 30
0.0
 11
223.5250000003559
 21
76.745000000741697
 31
0.0
  0
LINE
  5
13F
  8
PATTERN_FILL
  6
STYLE_05
 62
     7
 10
209.23684614920489
 20
65.520000000741689
 30
0.0
 11
206.52500000035579
 21
65.520000000741689
 31
0.0
  0
LINE
  5
140
  8
PATTERN_FILL
  6
STYLE_05
 62
     7
 10
210.4250000000558
 20
64.07087806375128
 30
0.0
 11
210.4250000000558
 21
64.358003310196594
 31
0.0
  0
LINE
  5
141
  8
PATTERN_FILL
  6
STYLE_05
 62
     7
 10
214.50949878468779
 20
62.725000000841717
 30
0.0
 11
211.31548997576979
 21
63.076892372415173
 31
0.0
  0
ARC
  5
142
  8
PATTERN_FILL
  6
STYLE_05
 62
     7
 10
211.4250000000558
 20
64.07087806375128
 30
0.0
 40
1.0
 50
180.0
 51
263.71292860378838
  0
LINE
  5
143
  8
PATTERN_FILL
  6
STYLE_05
 62
     7
 10
216.8507744516493
 20
63.191520703669532
 30
0.0
 11
213.45671923394869
 21
59.797465485968971
 31
0.0
  0
LINE
  5
144
  8
PATTERN_FILL
  6
STYLE_05
 62
     7
 10
216.9922531398814
 20
80.303562140378844
 30
0.0
 11
224.77749880074529
 21
72.518316479514937
 31
0.0
  0
LINE
  5
145
  8
PATTERN_FILL
  6
STYLE_05
 62
     7
 10
206.52500000035579
 20
74.970000000741649
 30
0.0
 11
209.22868867311001
 21
74.970000000741649
 31
0.0
  0
LINE
  5
146
  8
PATTERN_FILL
  6
STYLE_05
 62
     7
 10
215.62269609391529
 20
77.837989583573503
 30
0.0
 11
217.540260895301
 21
79.755554384959282
 31
0.0
  0
LINE
  5
147
  8
PATTERN_FILL
  6
STYLE_05
 62
     7
 10
224.22241997751391
 20
73.07339530274642
 30
0.0
 11
222.31062338279219
 21
71.161598708024755
 31
0.0
  0
LINE
  5
148
  8
PATTERN_FILL
  6
STYLE_05
 62
     7
 10
199.5250000003559
 20
75.745000000741697
 30
0.0
 11
206.52500000035579
 21
75.745000000741697
 31
0.0
  0
LINE
  5
149
  8
PATTERN_FILL
  6
STYLE_05
 62
     7
 10
-3.0900409518188199
 20
110.684165296494
 30
0.0
 11
1.5445089305093229
 21
114.45688943008921
 31
0.0
  0
LINE
  5
14A
  8
PATTERN_FILL
  6
STYLE_05
 62
     7
 10
-1.930801270189249
 20
108.6136379332024
 30
0.0
 11
2.7037486121388952
 21
112.3863620667976
 31
0.0
  0
LINE
  5
14B
  8
PATTERN_FILL
  6
STYLE_05
 62
     7
 10
-0.4172749411640809
 20
106.3714473629062
 30
0.0
 11
4.0655898380758648
 21
110.02069325942171
 31
0.0
  0
LINE
  5
14C
  8
PATTERN_FILL
  6
STYLE_05
 62
     7
 10
0.7528658851130672
 20
104.0180347819059
 30
0.0
 11
5.3874157674412109
 21
107.7907589155011
 31
0.0
  0
LINE
  5
14D
  8
PATTERN_FILL
  6
STYLE_05
 62
     7
 10
19.874568665807551
 20
110.2498070160093
 30
0.0
 11
15.2400187834794
 21
114.0225311496045
 31
0.0
  0
LINE
  5
14E
  8
PATTERN_FILL
  6
STYLE_05
 62
     7
 10
18.694549882328129
 20
108.2272758664048
 30
0.0
 11
14.059999999999979
 21
112.0
 31
0.0
  0
LINE
  5
14F
  8
PATTERN_FILL
  6
STYLE_05
 62
     7
 10
17.70172593809086
 20
106.2944519221675
 30
0.0
 11
13.06717605576271
 21
110.0671760557627
 31
0.0
  0
LINE
  5
150
  8
PATTERN_FILL
  6
STYLE_05
 62
     7
 10
16.287488193684439
 20
104.0283947709152
 30
0.0
 11
11.652938311356291
 21
107.8011189045104
 31
0.0
  0
LINE
  5
151
  8
PATTERN_FILL
  6
STYLE_05
 62
     7
 10
2.3630617757074499
 20
101.1551718258939
 30
0.0
 11
6.7005319594679511
 21
104.6860602307033
 31
0.0
  0
LINE
  5
152
  8
PATTERN_FILL
  6
STYLE_05
 62
     7
 10
14.534549882328131
 20
101.2272758664048
 30
0.0
 11
11.445000000363279
 21
103.7423031500856
 31
0.0
  0
LINE
  5
153
  8
SPEC
  6
CONTINUOUS
 62
     7
 10
-147.49999999999989
 20
507.06362999999988
 30
0.0
 11
295.0
 21
507.06362999999988
 31
0.0
  0
LINE
  5
154
  8
SPEC
  6
CONTINUOUS
 62
     7
 10
-147.49999999999989
 20
495.81362999999988
 30
0.0
 11
295.0
 21
495.81362999999988
 31
0.0
  0
LINE
  5
155
  8
SPEC
  6
CONTINUOUS
 62
     7
 10
-147.49999999999989
 20
450.81362999999988
 30
0.0
 11
295.0
 21
450.81362999999988
 31
0.0
  0
LINE
  5
156
  8
SPEC
  6
CONTINUOUS
 62
     7
 10
-147.49999999999989
 20
462.06362999999988
 30
0.0
 11
295.0
 21
462.06362999999988
 31
0.0
  0
LINE
  5
157
  8
SPEC
  6
CONTINUOUS
 62
     7
 10
-147.49999999999989
 20
473.31362999999988
 30
0.0
 11
295.0
 21
473.31362999999988
 31
0.0
  0
LINE
  5
158
  8
SPEC
  6
CONTINUOUS
 62
     7
 10
-147.49999999999989
 20
439.56362999999988
 30
0.0
 11
295.0
 21
439.56362999999988
 31
0.0
  0
LINE
  5
159
  8
SPEC
  6
CONTINUOUS
 62
     7
 10
-147.49999999999989
 20
417.06362999999988
 30
0.0
 11
295.0
 21
417.06362999999988
 31
0.0
  0
LINE
  5
15A
  8
SPEC
  6
CONTINUOUS
 62
     7
 10
-147.49999999999989
 20
428.31362999999988
 30
0.0
 11
295.0
 21
428.31362999999988
 31
0.0
  0
LINE
  5
15B
  8
SPEC
  6
CONTINUOUS
 62
     7
 10
-147.49999999999989
 20
405.81362999999988
 30
0.0
 11
295.0
 21
405.81362999999988
 31
0.0
  0
LINE
  5
15C
  8
SPEC
  6
CONTINUOUS
 62
     7
 10
-147.49999999999989
 20
394.56362999999988
 30
0.0
 11
295.0
 21
394.56362999999988
 31
0.0
  0
LINE
  5
15D
  8
SPEC
  6
CONTINUOUS
 62
     7
 10
-147.49999999999989
 20
484.56362999999988
 30
0.0
 11
295.0
 21
484.56362999999988
 31
0.0
  0
TEXT
  5
15E
  8
SPEC
 62
     7
 10
-48.127074084484001
 20
498.24101298161031
 30
0.0
 40
5.700933749999999
  1
コンデンサー型 
 41
0.7
 11
-48.127074084484001
 21
503.9419467316103
 31
0.0
 73
     3
  0
LINE
  5
15F
  8
SPEC
  6
CONTINUOUS
 62
     7
 10
-147.49999999999989
 20
507.06362999999988
 30
0.0
 11
-147.49999999999989
 21
360.81362999999988
 31
0.0
  0
TEXT
  5
160
  8
SPEC
 62
     7
 10
-143.74999999999989
 20
511.24343999999979
 30
0.0
 40
7.3297851562499989
  1
仕様
 41
0.7
 11
-143.74999999999989
 21
518.57322515624992
 31
0.0
 73
     3
  0
LINE
  5
161
  8
SPEC
  6
CONTINUOUS
 62
     7
 10
-50.0
 20
507.06362999999988
 30
0.0
 11
-50.0
 21
360.81362999999988
 31
0.0
  0
TEXT
  5
162
  8
SPEC
 62
     7
 10
-144.97847113251601
 20
498.35586593251588
 30
0.0
 40
5.700933749999999
  1
形式
 41
0.7
 11
-144.97847113251601
 21
504.05679968251587
 31
0.0
 73
     3
  0
TEXT
  5
163
  8
SPEC
 62
     7
 10
-47.849272176549569
 20
487.47666697654932
 30
0.0
 40
5.700933749999999
  1
カーディオイド
 41
0.7
 11
-47.849272176549569
 21
493.17760072654937
 31
0.0
 73
     3
  0
TEXT
  5
164
  8
SPEC
 62
     7
 10
-144.87919504586171
 20
487.04618736879252
 30
0.0
 40
5.700933749999999
  1
指向特性
 41
0.7
 11
-144.87919504586171
 21
492.74712111879251
 31
0.0
 73
     3
  0
TEXT
  5
165
  8
SPEC
 62
     7
 10
-47.29999999999999
 20
475.83432970758548
 30
0.0
 40
5.700933749999999
  1
60Hz～20kHz
 41
0.7
 11
-47.29999999999999
 21
481.53526345758547
 31
0.0
 73
     3
  0
TEXT
  5
166
  8
SPEC
 62
     7
 10
-144.83944115332471
 20
476.15068863989688
 30
0.0
 40
5.700933749999999
  1
周波数特性
 41
0.7
 11
-144.83944115332471
 21
481.85162238989682
 31
0.0
 73
     3
  0
TEXT
  5
167
  8
SPEC
 62
     7
 10
-47.065527236530741
 20
464.97449791476168
 30
0.0
 40
5.700933749999999
  1
-46dBV re 1V/Pa
 41
0.7
 11
-47.065527236530741
 21
470.67543166476167
 31
0.0
 73
     3
  0
TEXT
  5
168
  8
SPEC
 62
     7
 10
-145.15356861096399
 20
465.05596121949191
 30
0.0
 40
5.700933749999999
  1
閉回路感度
 41
0.7
 11
-145.15356861096399
 21
470.75689496949201
 31
0.0
 73
     3
  0
TEXT
  5
169
  8
SPEC
 62
     7
 10
-47.714537682776992
 20
453.73011171036973
 30
0.0
 40
5.700933749999999
  1
132dB SPL(THD3%%%) 
 41
0.7
 11
-47.714537682776992
 21
459.43104546036972
 31
0.0
 73
     3
  0
TEXT
  5
16A
  8
SPEC
 62
     7
 10
-144.85874186925699
 20
453.70607162331362
 30
0.0
 40
5.700933749999999
  1
最大音圧レベル
 41
0.7
 11
-144.85874186925699
 21
459.40700537331361
 31
0.0
 73
     3
  0
TEXT
  5
16B
  8
SPEC
 62
     7
 10
-47.265591609661513
 20
442.2026619227077
 30
0.0
 40
5.700933749999999
  1
31dB SPL(Aウェイト）
 41
0.7
 11
-47.265591609661513
 21
447.90359567270758
 31
0.0
 73
     3
  0
TEXT
  5
16C
  8
SPEC
 62
     7
 10
-144.9293037069659
 20
442.62563481761521
 30
0.0
 40
5.700933749999999
  1
等価雑音レベル
 41
0.7
 11
-144.9293037069659
 21
448.3265685676152
 31
0.0
 73
     3
  0
TEXT
  5
16D
  8
SPEC
 62
     7
 10
-47.334272512484382
 20
431.05439243732832
 30
0.0
 40
5.700933749999999
  1
200\U+03A9以下
 41
0.7
 11
-47.334272512484382
 21
436.75532618732831
 31
0.0
 73
     3
  0
TEXT
  5
16E
  8
SPEC
 62
     7
 10
-145.20553781484529
 20
431.31466850904252
 30
0.0
 40
5.700933749999999
  1
インピーダンス
 41
0.7
 11
-145.20553781484529
 21
437.01560225904262
 31
0.0
 73
     3
  0
TEXT
  5
16F
  8
SPEC
 62
     7
 10
-48.688853495729411
 20
419.97257177274918
 30
0.0
 40
5.700933749999999
  1
ミニXLR 3ピン(メス)
 41
0.7
 11
-48.688853495729411
 21
425.67350552274922
 31
0.0
 73
     3
  0
TEXT
  5
170
  8
SPEC
 62
     7
 10
-145.607872712757
 20
420.35067790029359
 30
0.0
 40
5.700933749999999
  1
コネクター
 41
0.7
 11
-145.607872712757
 21
426.05161165029358
 31
0.0
 73
     3
  0
TEXT
  5
171
  8
SPEC
 62
     7
 10
-47.350943044159898
 20
408.63588219743917
 30
0.0
 40
5.700933749999999
  1
別売のAKGワイヤレスシステムのボディパック型 送信機、またはポータ ブルミキサー(B29L）に対応
 41
0.7
 11
-47.350943044159898
 21
414.33681594743922
 31
0.0
 73
     3
  0
TEXT
  5
172
  8
SPEC
 62
     7
 10
-145.02972737948639
 20
408.82828904187858
 30
0.0
 40
5.700933749999999
  1
電源
 41
0.7
 11
-145.02972737948639
 21
414.52922279187851
 31
0.0
 73
     3
  0
LINE
  5
173
  8
SPEC
  6
CONTINUOUS
 62
     7
 10
-147.49999999999989
 20
383.31362999999988
 30
0.0
 11
295.0
 21
383.31362999999988
 31
0.0
  0
LINE
  5
174
  8
SPEC
  6
CONTINUOUS
 62
     7
 10
-147.49999999999989
 20
360.81362999999988
 30
0.0
 11
295.0
 21
360.81362999999988
 31
0.0
  0
TEXT
  5
175
  8
SPEC
 62
     7
 10
-47.466139759053711
 20
374.92710106922061
 30
0.0
 40
5.7009440104166647
  1
接続ケーブル(1.5m、ミニXLR対ミニXLR)、ドラム取付けブラケット、送信機ホルダー
 41
0.7
 11
-47.466139759053711
 21
380.62804507963722
 31
0.0
 73
     3
  0
TEXT
  5
176
  8
SPEC
 62
     7
 10
-47.186948009108967
 20
397.29960167936122
 30
0.0
 40
5.7009440104166647
  1
47(W)\U+00D7200(H)\U+00D752(D)mm(突起は含まず) 
 41
0.7
 11
-47.186948009108967
 21
403.00054568977788
 31
0.0
 73
     3
  0
TEXT
  5
177
  8
SPEC
 62
     7
 10
-145.13558990403209
 20
397.86254716180332
 30
0.0
 40
5.7009440104166647
  1
寸法
 41
0.7
 11
-145.13558990403209
 21
403.56349117221993
 31
0.0
 73
     3
  0
TEXT
  5
178
  8
SPEC
 62
     7
 10
-144.98965289334399
 20
386.42558443192331
 30
0.0
 40
5.7009440104166647
  1
重量
 41
0.7
 11
-144.98965289334399
 21
392.12652844233992
 31
0.0
 73
     3
  0
TEXT
  5
179
  8
SPEC
 62
     7
 10
-144.84213594776941
 20
375.28472050441269
 30
0.0
 40
5.7009440104166647
  1
付属品
 41
0.7
 11
-144.84213594776941
 21
380.98566451482941
 31
0.0
 73
     3
  0
TEXT
  5
17A
  8
SPEC
 62
     7
 10
-47.49257429996959
 20
386.10739732175011
 30
0.0
 40
5.7009440104166647
  1
約120g(ケーブル含む)
 41
0.7
 11
-47.49257429996959
 21
391.80834133216678
 31
0.0
 73
     3
  0
TEXT
  5
17B
  8
SPEC
 62
     7
 10
-47.91792387991709
 20
364.00695572097061
 30
0.0
 40
5.7009440104166647
  1
ウインドスクリーン(W44）、グースネック固定パーツ、マイクポーチ
 41
0.7
 11
-47.91792387991709
 21
369.70789973138727
 31
0.0
 73
     3
  0
LINE
  5
17C
  8
SPEC
  6
CONTINUOUS
 62
     7
 10
295.0
 20
507.06362999999988
 30
0.0
 11
295.0
 21
360.81362999999988
 31
0.0
  0
TEXT
  5
17D
  8
DIMNSIONS
 62
     7
 10
40.0
 20
-206.12790000000001
 30
0.0
 40
7.3297851562499989
  1
(単位：mm)
 41
0.7
 11
40.0
 21
-198.79811484375
 31
0.0
 73
     3
  0
LINE
  5
17E
  8
DIMNSIONS
  6
CONTINUOUS
 62
     7
 10
-30.999999999636699
 20
-6.25
 30
0.0
 11
-56.000000000000021
 21
-6.25
 31
0.0
  0
LINE
  5
17F
  8
DIMNSIONS
  6
CONTINUOUS
 62
     7
 10
-28.30999999963668
 20
86.75
 30
0.0
 11
-56.000000000000021
 21
86.75
 31
0.0
  0
LINE
  5
180
  8
DIMNSIONS
  6
CONTINUOUS
 62
     7
 10
-50.000000000000021
 20
-6.25
 30
0.0
 11
-50.000000000000021
 21
86.75
 31
0.0
  0
SOLID
  5
181
  8
DIMNSIONS
 62
     7
 10
-50.000000000000021
 20
86.75
 30
0.0
 11
-47.989880614549278
 21
79.24813232421873
 31
0.0
 12
-52.01011938545075
 22
79.24813232421873
 32
0.0
 13
-52.01011938545075
 23
79.24813232421873
 33
0.0
  0
TEXT
  5
182
  8
DIMNSIONS
 62
     7
 10
-52.981666666666662
 20
34.958333333333329
 30
0.0
 40
8.1442057291666661
  1
93
 50
90.0
 41
0.7
 11
-61.125872395833341
 21
34.958333333333329
 31
0.0
 73
     3
  0
LINE
  5
183
  8
DIMNSIONS
  6
CONTINUOUS
 62
     7
 10
-30.999999999636699
 20
-6.25
 30
0.0
 11
-74.750000000000014
 21
-6.25
 31
0.0
  0
LINE
  5
184
  8
DIMNSIONS
  6
CONTINUOUS
 62
     7
 10
2.4950000003632899
 20
193.75
 30
0.0
 11
-74.750000000000014
 21
193.75
 31
0.0
  0
LINE
  5
185
  8
DIMNSIONS
  6
CONTINUOUS
 62
     7
 10
-68.750000000000014
 20
-6.25
 30
0.0
 11
-68.750000000000014
 21
193.75
 31
0.0
  0
SOLID
  5
186
  8
DIMNSIONS
 62
     7
 10
-68.750000000000014
 20
193.75
 30
0.0
 11
-66.739880614549264
 21
186.2481323242188
 31
0.0
 12
-70.76011938545075
 22
186.2481323242188
 32
0.0
 13
-70.76011938545075
 23
186.2481323242188
 33
0.0
  0
TEXT
  5
187
  8
DIMNSIONS
 62
     7
 10
-71.731666666666641
 20
85.8125
 30
0.0
 40
8.1442057291666661
  1
200
 50
90.0
 41
0.7
 11
-79.875872395833312
 21
85.8125
 31
0.0
 73
     3
  0
LINE
  5
188
  8
DIMNSIONS
  6
CONTINUOUS
 62
     7
 10
-29.499999999636689
 20
58.75
 30
0.0
 11
-29.499999999636689
 21
-37.25
 31
0.0
  0
LINE
  5
189
  8
DIMNSIONS
  6
CONTINUOUS
 62
     7
 10
17.500000000363279
 20
56.775000000300011
 30
0.0
 11
17.500000000363279
 21
-37.25
 31
0.0
  0
LINE
  5
18A
  8
DIMNSIONS
  6
CONTINUOUS
 62
     7
 10
-29.499999999636689
 20
-31.25
 30
0.0
 11
17.500000000363279
 21
-31.25
 31
0.0
  0
SOLID
  5
18B
  8
DIMNSIONS
 62
     7
 10
17.500000000363279
 20
-31.25
 30
0.0
 11
9.9981323245820448
 21
-33.260119385450743
 31
0.0
 12
9.9981323245820448
 22
-29.239880614549261
 32
0.0
 13
9.9981323245820448
 23
-29.239880614549261
 33
0.0
  0
TEXT
  5
18C
  8
DIMNSIONS
 62
     7
 10
-11.291666666303369
 20
-28.268333333333331
 30
0.0
 40
8.1442057291666661
  1
47
 41
0.7
 11
-11.291666666303369
 21
-20.124127604166649
 31
0.0
 73
     3
  0
LINE
  5
18D
  8
DIMNSIONS
  6
CONTINUOUS
 62
     7
 10
159.48857219784509
 20
-123.2101479406595
 30
0.0
 11
159.48857219784509
 21
-106.5
 31
0.0
  0
LINE
  5
18E
  8
DIMNSIONS
  6
CONTINUOUS
 62
     7
 10
159.48857219784509
 20
-112.5
 30
0.0
 11
47.5
 21
-112.5
 31
0.0
  0
LINE
  5
18F
  8
DIMNSIONS
  6
CONTINUOUS
 62
     7
 10
159.48857219784509
 20
-112.5
 30
0.0
 11
151.9867045220638
 21
-114.51011938545069
 31
0.0
  0
LINE
  5
190
  8
DIMNSIONS
  6
CONTINUOUS
 62
     7
 10
159.48857219784509
 20
-112.5
 30
0.0
 11
151.9867045220638
 21
-110.48988061454919
 31
0.0
  0
TEXT
  5
191
  8
DIMNSIONS
 62
     7
 10
70.119286098922572
 20
-109.5183333333333
 30
0.0
 40
8.1442057291666661
  1
1500
 41
0.7
 11
70.119286098922572
 21
-101.3741276041666
 31
0.0
 73
     3
  0
LINE
  5
192
  8
DIMNSIONS
  6
CONTINUOUS
 62
     7
 10
20.219745119755149
 20
48.749999999628727
 30
0.0
 11
43.5
 21
48.749999999628727
 31
0.0
  0
LINE
  5
193
  8
DIMNSIONS
  6
CONTINUOUS
 62
     7
 10
37.5
 20
48.749999999628727
 30
0.0
 11
37.5
 21
-102.5
 31
0.0
  0
LINE
  5
194
  8
DIMNSIONS
  6
CONTINUOUS
 62
     7
 10
37.5
 20
48.749999999628727
 30
0.0
 11
39.510119385450729
 21
41.248132323847472
 31
0.0
  0
LINE
  5
195
  8
DIMNSIONS
  6
CONTINUOUS
 62
     7
 10
37.5
 20
48.749999999628727
 30
0.0
 11
35.489880614549257
 21
41.248132323847472
 31
0.0
  0
LINE
  5
196
  8
DIMNSIONS
  6
CONTINUOUS
 62
     7
 10
167.5000000003634
 20
51.850000000000023
 30
0.0
 11
144.0
 21
51.850000000000023
 31
0.0
  0
LINE
  5
197
  8
DIMNSIONS
  6
CONTINUOUS
 62
     7
 10
162.5000000003634
 20
60.75
 30
0.0
 11
144.0
 21
60.75
 31
0.0
  0
LINE
  5
198
  8
DIMNSIONS
  6
CONTINUOUS
 62
     7
 10
150.0
 20
60.75
 30
0.0
 11
150.0
 21
51.850000000000023
 31
0.0
  0
LINE
  5
199
  8
DIMNSIONS
  6
CONTINUOUS
 62
     7
 10
150.0
 20
51.850000000000023
 30
0.0
 11
150.0
 21
-43.75
 31
0.0
  0
LINE
  5
19A
  8
DIMNSIONS
  6
CONTINUOUS
 62
     7
 10
150.0
 20
60.75
 30
0.0
 11
150.0
 21
75.75
 31
0.0
  0
LINE
  5
19B
  8
DIMNSIONS
  6
CONTINUOUS
 62
     7
 10
-28.849999999636751
 20
237.50000000032031
 30
0.0
 11
-74.750000000000014
 21
237.50000000032031
 31
0.0
  0
LINE
  5
19C
  8
DIMNSIONS
  6
CONTINUOUS
 62
     7
 10
-35.499999999636692
 20
289.50000000032048
 30
0.0
 11
-74.750000000000014
 21
289.50000000032048
 31
0.0
  0
LINE
  5
19D
  8
DIMNSIONS
  6
CONTINUOUS
 62
     7
 10
-68.750000000000014
 20
237.50000000032031
 30
0.0
 11
-68.750000000000014
 21
289.50000000032048
 31
0.0
  0
SOLID
  5
19E
  8
DIMNSIONS
 62
     7
 10
-68.750000000000014
 20
289.50000000032048
 30
0.0
 11
-66.739880614549264
 21
281.99813232453931
 31
0.0
 12
-70.76011938545075
 22
281.99813232453931
 32
0.0
 13
-70.76011938545075
 23
281.99813232453931
 33
0.0
  0
TEXT
  5
19F
  8
DIMNSIONS
 62
     7
 10
-71.731666666666641
 20
258.20833333365368
 30
0.0
 40
8.1442057291666661
  1
52
 50
90.0
 41
0.7
 11
-79.875872395833312
 21
258.20833333365368
 31
0.0
 73
     3
  0
TEXT
  5
1A0
  8
DIMNSIONS
 62
     7
 10
158.776537529607
 20
-39.074739910068509
 30
0.0
 40
8.1442057291666661
  1
取り付け可能厚さ10mm～45mm
 41
0.7
 11
158.776537529607
 21
-30.930534180901841
 31
0.0
 73
     3
  0
LINE
  5
1A1
  8
DIMNSIONS
  6
CONTINUOUS
 62
     7
 10
150.0
 20
-43.75
 30
0.0
 11
305.5
 21
-43.75
 31
0.0
  0
ARC
  5
1A2
  8
DIMNSIONS
  6
CONTINUOUS
 62
     7
 10
47.5
 20
-102.5
 30
0.0
 40
10.0
 50
180.0
 51
270.0
  0
TEXT
  5
1A3
  8
DATA
 62
     7
 10
250.0
 20
-209.5437
 30
0.0
 40
7.3297851562499989
  1
C518ML
 41
0.7
 11
250.0
 21
-202.21391484374999
 31
0.0
 73
     3
  0
TEXT
  5
1A4
  8
DATA
 62
     7
 10
250.0
 20
-187.7937
 30
0.0
 40
7.3297851562499989
  1
AKG
 41
0.7
 11
250.0
 21
-180.46391484374999
 31
0.0
 73
     3
  0
TEXT
  5
1A5
  8
DATA
 62
     7
 10
242.5
 20
-197.67484232246551
 30
0.0
 40
4.8865311328124994
  1
クランプ式マイクロホン
 41
0.7
 11
242.5
 21
-192.788311189653
 31
0.0
 73
     3
  0
TEXT
  5
1A6
  8
DATA
 62
     7
 10
-139.99999999999989
 20
-230.22237000000001
 30
0.0
 40
4.8865234374999993
  1
仕様および外観は予告なく変更されることがありますので、ご了承ください。
 41
0.7
 11
-139.99999999999989
 21
-225.3358465625
 31
0.0
 73
     3
  0
LINE
  5
1A7
  8
DATA
  6
CONTINUOUS
 62
     7
 10
-29.499999999636689
 20
75.749999999999986
 30
0.0
 11
-22.749999999636721
 21
75.749999999999986
 31
0.0
  0
LINE
  5
1A8
  8
DATA
  6
CONTINUOUS
 62
     7
 10
-11.24999999963671
 20
75.749999999999986
 30
0.0
 11
-4.2999999996367251
 21
75.749999999999986
 31
0.0
  0
LINE
  5
1A9
  8
DATA
  6
CONTINUOUS
 62
     7
 10
-1.999999999636713
 20
75.749999999999986
 30
0.0
 11
-1.499999999636713
 21
75.749999999999986
 31
0.0
  0
LINE
  5
1AA
  8
DATA
  6
CONTINUOUS
 62
     7
 10
-29.499999999636689
 20
64.749999999999986
 30
0.0
 11
-28.499999999636689
 21
64.749999999999986
 31
0.0
  0
LINE
  5
1AB
  8
DATA
  6
CONTINUOUS
 62
     7
 10
-5.4999999996367128
 20
64.749999999999986
 30
0.0
 11
-4.2999999996367251
 21
64.749999999999986
 31
0.0
  0
LINE
  5
1AC
  8
DATA
  6
CONTINUOUS
 62
     7
 10
-1.999999999636713
 20
64.749999999999986
 30
0.0
 11
-1.499999999636713
 21
64.749999999999986
 31
0.0
  0
LINE
  5
1AD
  8
DATA
  6
CONTINUOUS
 62
     7
 10
204.2200000002633
 20
75.749999999999986
 30
0.0
 11
205.02000000026331
 21
75.749999999999986
 31
0.0
  0
LINE
  5
1AE
  8
DATA
  6
CONTINUOUS
 62
     7
 10
220.52000000026331
 20
85.750000000000014
 30
0.0
 11
220.52000000026331
 21
78.75
 31
0.0
  0
LINE
  5
1AF
  8
DATA
  6
CONTINUOUS
 62
     7
 10
209.52000000026331
 20
78.75
 30
0.0
 11
209.52000000026331
 21
85.750000000000014
 31
0.0
  0
LINE
  5
1B0
  8
DATA
  6
CONTINUOUS
 62
     7
 10
220.52000000026331
 20
85.750000000000014
 30
0.0
 11
209.52000000026331
 21
85.750000000000014
 31
0.0
  0
LINE
  5
1B1
  8
DATA
  6
CONTINUOUS
 62
     7
 10
210.29500000026329
 20
76.038153851150895
 30
0.0
 11
210.29500000026329
 21
78.75
 31
0.0
  0
LINE
  5
1B2
  8
DATA
  6
CONTINUOUS
 62
     7
 10
219.7450000002633
 20
78.75
 30
0.0
 11
219.7450000002633
 21
76.046311327245903
 31
0.0
  0
LINE
  5
1B3
  8
DATA
  6
CONTINUOUS
 62
     7
 10
209.52000000026331
 20
78.75
 30
0.0
 11
220.5300000002633
 21
78.75
 31
0.0
  0
LINE
  5
1B4
  8
DATA
  6
CONTINUOUS
 62
     7
 10
-29.499999999636689
 20
64.749999999999986
 30
0.0
 11
-29.499999999636689
 21
75.749999999999986
 31
0.0
  0
LINE
  5
1B5
  8
DATA
  6
CONTINUOUS
 62
     7
 10
212.07000000026329
 20
85.750000000000014
 30
0.0
 11
212.07000000026329
 21
136.75
 31
0.0
  0
LINE
  5
1B6
  8
DATA
  6
CONTINUOUS
 62
     7
 10
217.97000000026321
 20
136.75
 30
0.0
 11
217.97000000026321
 21
85.750000000000014
 31
0.0
  0
LINE
  5
1B7
  8
DATA
  6
CONTINUOUS
 62
     7
 10
219.52000000026331
 20
136.75
 30
0.0
 11
210.52000000026331
 21
136.75
 31
0.0
  0
LINE
  5
1B8
  8
DATA
  6
CONTINUOUS
 62
     7
 10
219.92000000026329
 20
148.75
 30
0.0
 11
210.1200000002633
 21
148.75
 31
0.0
  0
LINE
  5
1B9
  8
DATA
  6
CONTINUOUS
 62
     7
 10
210.52000000026331
 20
136.75
 30
0.0
 11
210.1200000002633
 21
148.75
 31
0.0
  0
LINE
  5
1BA
  8
DATA
  6
CONTINUOUS
 62
     7
 10
219.52000000026331
 20
136.75
 30
0.0
 11
219.92000000026329
 21
148.75
 31
0.0
  0
LINE
  5
1BB
  8
DATA
  6
CONTINUOUS
 62
     7
 10
219.92000000026329
 20
166.75
 30
0.0
 11
210.1200000002633
 21
166.75
 31
0.0
  0
LINE
  5
1BC
  8
DATA
  6
CONTINUOUS
 62
     7
 10
210.1200000002633
 20
148.75
 30
0.0
 11
210.1200000002633
 21
178.95402420284711
 31
0.0
  0
LINE
  5
1BD
  8
DATA
  6
CONTINUOUS
 62
     7
 10
219.92000000026329
 20
148.75
 30
0.0
 11
219.92000000026329
 21
177.79088705656261
 31
0.0
  0
LINE
  5
1BE
  8
DATA
  6
CONTINUOUS
 62
     7
 10
212.07000000026329
 20
86.5
 30
0.0
 11
217.97000000026321
 21
87.450000000000017
 31
0.0
  0
LINE
  5
1BF
  8
DATA
  6
CONTINUOUS
 62
     7
 10
212.07000000026329
 20
88.499999999999986
 30
0.0
 11
217.97000000026321
 21
89.450000000000017
 31
0.0
  0
LINE
  5
1C0
  8
DATA
  6
CONTINUOUS
 62
     7
 10
212.07000000026329
 20
90.5
 30
0.0
 11
217.97000000026321
 21
91.450000000000017
 31
0.0
  0
LINE
  5
1C1
  8
DATA
  6
CONTINUOUS
 62
     7
 10
212.07000000026329
 20
92.5
 30
0.0
 11
217.97000000026321
 21
93.450000000000003
 31
0.0
  0
LINE
  5
1C2
  8
DATA
  6
CONTINUOUS
 62
     7
 10
212.07000000026329
 20
94.500000000000014
 30
0.0
 11
217.97000000026321
 21
95.449999999999989
 31
0.0
  0
LINE
  5
1C3
  8
DATA
  6
CONTINUOUS
 62
     7
 10
212.07000000026329
 20
96.5
 30
0.0
 11
217.97000000026321
 21
97.450000000000003
 31
0.0
  0
LINE
  5
1C4
  8
DATA
  6
CONTINUOUS
 62
     7
 10
212.07000000026329
 20
98.500000000000014
 30
0.0
 11
217.97000000026321
 21
99.450000000000003
 31
0.0
  0
LINE
  5
1C5
  8
DATA
  6
CONTINUOUS
 62
     7
 10
212.07000000026329
 20
100.5
 30
0.0
 11
217.97000000026321
 21
101.45
 31
0.0
  0
LINE
  5
1C6
  8
DATA
  6
CONTINUOUS
 62
     7
 10
212.07000000026329
 20
102.5
 30
0.0
 11
217.97000000026321
 21
103.45
 31
0.0
  0
LINE
  5
1C7
  8
DATA
  6
CONTINUOUS
 62
     7
 10
212.07000000026329
 20
104.5
 30
0.0
 11
217.97000000026321
 21
105.45
 31
0.0
  0
LINE
  5
1C8
  8
DATA
  6
CONTINUOUS
 62
     7
 10
212.07000000026329
 20
106.5
 30
0.0
 11
217.97000000026321
 21
107.45
 31
0.0
  0
LINE
  5
1C9
  8
DATA
  6
CONTINUOUS
 62
     7
 10
212.07000000026329
 20
108.5
 30
0.0
 11
217.97000000026321
 21
109.45
 31
0.0
  0
LINE
  5
1CA
  8
DATA
  6
CONTINUOUS
 62
     7
 10
212.07000000026329
 20
110.5
 30
0.0
 11
217.97000000026321
 21
111.45
 31
0.0
  0
LINE
  5
1CB
  8
DATA
  6
CONTINUOUS
 62
     7
 10
212.07000000026329
 20
112.5
 30
0.0
 11
217.97000000026321
 21
113.45
 31
0.0
  0
LINE
  5
1CC
  8
DATA
  6
CONTINUOUS
 62
     7
 10
212.07000000026329
 20
114.5
 30
0.0
 11
217.97000000026321
 21
115.45
 31
0.0
  0
LINE
  5
1CD
  8
DATA
  6
CONTINUOUS
 62
     7
 10
212.07000000026329
 20
116.5
 30
0.0
 11
217.97000000026321
 21
117.45
 31
0.0
  0
LINE
  5
1CE
  8
DATA
  6
CONTINUOUS
 62
     7
 10
212.07000000026329
 20
118.5
 30
0.0
 11
217.97000000026321
 21
119.45
 31
0.0
  0
LINE
  5
1CF
  8
DATA
  6
CONTINUOUS
 62
     7
 10
212.07000000026329
 20
120.5
 30
0.0
 11
217.97000000026321
 21
121.45
 31
0.0
  0
LINE
  5
1D0
  8
DATA
  6
CONTINUOUS
 62
     7
 10
212.07000000026329
 20
122.5
 30
0.0
 11
217.97000000026321
 21
123.45
 31
0.0
  0
LINE
  5
1D1
  8
DATA
  6
CONTINUOUS
 62
     7
 10
212.07000000026329
 20
124.5
 30
0.0
 11
217.97000000026321
 21
125.45
 31
0.0
  0
LINE
  5
1D2
  8
DATA
  6
CONTINUOUS
 62
     7
 10
212.07000000026329
 20
126.5
 30
0.0
 11
217.97000000026321
 21
127.45
 31
0.0
  0
LINE
  5
1D3
  8
DATA
  6
CONTINUOUS
 62
     7
 10
212.07000000026329
 20
128.5
 30
0.0
 11
217.97000000026321
 21
129.44999999999999
 31
0.0
  0
LINE
  5
1D4
  8
DATA
  6
CONTINUOUS
 62
     7
 10
212.07000000026329
 20
130.5
 30
0.0
 11
217.97000000026321
 21
131.44999999999999
 31
0.0
  0
LINE
  5
1D5
  8
DATA
  6
CONTINUOUS
 62
     7
 10
212.07000000026329
 20
132.5
 30
0.0
 11
217.97000000026321
 21
133.44999999999999
 31
0.0
  0
LINE
  5
1D6
  8
DATA
  6
CONTINUOUS
 62
     7
 10
212.07000000026329
 20
134.5
 30
0.0
 11
217.97000000026321
 21
135.44999999999999
 31
0.0
  0
LINE
  5
1D7
  8
DATA
  6
CONTINUOUS
 62
     7
 10
208.02000000026331
 20
49.75
 30
0.0
 11
208.02000000026331
 21
61.75
 31
0.0
  0
LINE
  5
1D8
  8
DATA
  6
CONTINUOUS
 62
     7
 10
222.02000000026331
 20
61.75
 30
0.0
 11
222.02000000026331
 21
49.75
 31
0.0
  0
LINE
  5
1D9
  8
DATA
  6
CONTINUOUS
 62
     7
 10
220.82000000026329
 20
48.75
 30
0.0
 11
209.2200000002633
 21
48.75
 31
0.0
  0
LINE
  5
1DA
  8
DATA
  6
CONTINUOUS
 62
     7
 10
220.82000000026329
 20
49.75
 30
0.0
 11
220.82000000026329
 21
48.75
 31
0.0
  0
LINE
  5
1DB
  8
DATA
  6
CONTINUOUS
 62
     7
 10
209.2200000002633
 20
48.75
 30
0.0
 11
209.2200000002633
 21
49.75
 31
0.0
  0
LINE
  5
1DC
  8
DATA
  6
CONTINUOUS
 62
     7
 10
208.02000000026331
 20
49.75
 30
0.0
 11
222.02000000026331
 21
49.75
 31
0.0
  0
LINE
  5
1DD
  8
DATA
  6
CONTINUOUS
 62
     7
 10
222.02000000026331
 20
61.75
 30
0.0
 11
208.02000000026331
 21
61.75
 31
0.0
  0
LINE
  5
1DE
  8
DATA
  6
CONTINUOUS
 62
     7
 10
208.52000000026331
 20
61.75
 30
0.0
 11
208.52000000026331
 21
66.567528004270585
 31
0.0
  0
LINE
  5
1DF
  8
DATA
  6
CONTINUOUS
 62
     7
 10
221.52000000026331
 20
66.549918920315235
 30
0.0
 11
221.52000000026331
 21
61.75
 31
0.0
  0
LINE
  5
1E0
  8
DATA
  6
CONTINUOUS
 62
     7
 10
-22.309999999636691
 20
86.75
 30
0.0
 11
-11.68999999963674
 21
86.75
 31
0.0
  0
LINE
  5
1E1
  8
DATA
  6
CONTINUOUS
 62
     7
 10
-28.499999999636689
 20
35.75
 30
0.0
 11
-28.499999999636689
 21
70.249999999999986
 31
0.0
  0
LINE
  5
1E2
  8
DATA
  6
CONTINUOUS
 62
     7
 10
-5.4999999996367128
 20
70.249999999999986
 30
0.0
 11
-5.4999999996367128
 21
35.75
 31
0.0
  0
LINE
  5
1E3
  8
DATA
  6
CONTINUOUS
 62
     7
 10
-22.749999999636721
 20
70.249999999999986
 30
0.0
 11
-22.749999999636721
 21
86.150000000000006
 31
0.0
  0
LINE
  5
1E4
  8
DATA
  6
CONTINUOUS
 62
     7
 10
-11.24999999963671
 20
86.150000000000006
 30
0.0
 11
-11.24999999963671
 21
70.249999999999986
 31
0.0
  0
LINE
  5
1E5
  8
DATA
  6
CONTINUOUS
 62
     7
 10
-24.999999999636721
 20
-6.25
 30
0.0
 11
-8.9999999996367137
 21
-6.25
 31
0.0
  0
LINE
  5
1E6
  8
DATA
  6
CONTINUOUS
 62
     7
 10
-24.999999999636721
 20
-6.25
 30
0.0
 11
-24.999999999636721
 21
42.306250000000027
 31
0.0
  0
LINE
  5
1E7
  8
DATA
  6
CONTINUOUS
 62
     7
 10
-8.9999999996367137
 20
-6.25
 30
0.0
 11
-8.9999999996367137
 21
42.306249999999977
 31
0.0
  0
LINE
  5
1E8
  8
DATA
  6
CONTINUOUS
 62
     7
 10
-28.499999999636689
 20
35.75
 30
0.0
 11
-24.999999999636721
 21
35.75
 31
0.0
  0
LINE
  5
1E9
  8
DATA
  6
CONTINUOUS
 62
     7
 10
-8.9999999996367137
 20
35.75
 30
0.0
 11
-5.4999999996367128
 21
35.75
 31
0.0
  0
LINE
  5
1EA
  8
DATA
  6
CONTINUOUS
 62
     7
 10
-28.499999999636689
 20
70.249999999999986
 30
0.0
 11
-22.749999999636721
 21
70.249999999999986
 31
0.0
  0
LINE
  5
1EB
  8
DATA
  6
CONTINUOUS
 62
     7
 10
-11.24999999963671
 20
70.249999999999986
 30
0.0
 11
-5.4999999996367128
 21
70.249999999999986
 31
0.0
  0
LINE
  5
1EC
  8
DATA
  6
CONTINUOUS
 62
     7
 10
-22.849999999636712
 20
60.75
 30
0.0
 11
-11.149999999636719
 21
60.75
 31
0.0
  0
LINE
  5
1ED
  8
DATA
  6
CONTINUOUS
 62
     7
 10
-22.849999999636712
 20
70.049999999999983
 30
0.0
 11
-18.99999999963671
 21
70.049999999999983
 31
0.0
  0
LINE
  5
1EE
  8
DATA
  6
CONTINUOUS
 62
     7
 10
-14.99999999963671
 20
70.049999999999983
 30
0.0
 11
-11.149999999636719
 21
70.049999999999983
 31
0.0
  0
LINE
  5
1EF
  8
DATA
  6
CONTINUOUS
 62
     7
 10
-22.849999999636712
 20
60.75
 30
0.0
 11
-22.849999999636712
 21
70.049999999999983
 31
0.0
  0
LINE
  5
1F0
  8
DATA
  6
CONTINUOUS
 62
     7
 10
-11.149999999636719
 20
60.75
 30
0.0
 11
-11.149999999636719
 21
70.049999999999983
 31
0.0
  0
POLYLINE
  5
1F1
  8
DATA
  6
CONTINUOUS
 62
     7
 66
     1
 10
0.0
 20
0.0
 30
0.0
 70
     1
  0
VERTEX
  5
4A2
  8
DATA
  6
CONTINUOUS
 62
     7
 10
-24.499999999636721
 20
51.850000000000023
 30
0.0
  0
VERTEX
  5
4A3
  8
DATA
  6
CONTINUOUS
 62
     7
 10
-9.4999999996367102
 20
51.850000000000023
 30
0.0
  0
VERTEX
  5
4A4
  8
DATA
  6
CONTINUOUS
 62
     7
 10
-9.4999999996367102
 20
42.850000000000009
 30
0.0
  0
VERTEX
  5
4A5
  8
DATA
  6
CONTINUOUS
 62
     7
 10
-24.499999999636721
 20
42.850000000000009
 30
0.0
  0
SEQEND
  5
4A6
  8
DATA
  6
CONTINUOUS
 62
     7
  0
LINE
  5
1F8
  8
DATA
  6
CONTINUOUS
 62
     7
 10
-24.499999999636721
 20
42.850000000000009
 30
0.0
 11
-28.499999999636689
 21
38.500000000000007
 31
0.0
  0
LINE
  5
1F9
  8
DATA
  6
CONTINUOUS
 62
     7
 10
-9.4999999996367102
 20
42.850000000000009
 30
0.0
 11
-5.4999999996367128
 21
38.500000000000007
 31
0.0
  0
LINE
  5
1FA
  8
DATA
  6
CONTINUOUS
 62
     7
 10
-19.49999999963671
 20
0.75
 30
0.0
 11
-19.49999999963671
 21
42.850000000000009
 31
0.0
  0
LINE
  5
1FB
  8
DATA
  6
CONTINUOUS
 62
     7
 10
-19.49999999963671
 20
51.850000000000023
 30
0.0
 11
-19.49999999963671
 21
60.75
 31
0.0
  0
LINE
  5
1FC
  8
DATA
  6
CONTINUOUS
 62
     7
 10
-14.49999999963671
 20
60.75
 30
0.0
 11
-14.49999999963671
 21
51.850000000000023
 31
0.0
  0
LINE
  5
1FD
  8
DATA
  6
CONTINUOUS
 62
     7
 10
-14.49999999963671
 20
42.850000000000009
 30
0.0
 11
-14.49999999963671
 21
0.75
 31
0.0
  0
LINE
  5
1FE
  8
DATA
  6
CONTINUOUS
 62
     7
 10
-19.49999999963671
 20
0.75
 30
0.0
 11
-14.49999999963671
 21
0.75
 31
0.0
  0
LINE
  5
1FF
  8
DATA
  6
CONTINUOUS
 62
     7
 10
-19.49999999963671
 20
41.700000000000003
 30
0.0
 11
-14.49999999963671
 21
42.450000000000003
 31
0.0
  0
LINE
  5
200
  8
DATA
  6
CONTINUOUS
 62
     7
 10
-19.49999999963671
 20
39.700000000000003
 30
0.0
 11
-14.49999999963671
 21
40.450000000000003
 31
0.0
  0
LINE
  5
201
  8
DATA
  6
CONTINUOUS
 62
     7
 10
-19.49999999963671
 20
37.700000000000003
 30
0.0
 11
-14.49999999963671
 21
38.450000000000003
 31
0.0
  0
LINE
  5
202
  8
DATA
  6
CONTINUOUS
 62
     7
 10
-19.49999999963671
 20
35.70000000000001
 30
0.0
 11
-14.49999999963671
 21
36.450000000000003
 31
0.0
  0
LINE
  5
203
  8
DATA
  6
CONTINUOUS
 62
     7
 10
-19.49999999963671
 20
33.700000000000003
 30
0.0
 11
-14.49999999963671
 21
34.450000000000003
 31
0.0
  0
LINE
  5
204
  8
DATA
  6
CONTINUOUS
 62
     7
 10
-19.49999999963671
 20
31.70000000000001
 30
0.0
 11
-14.49999999963671
 21
32.450000000000003
 31
0.0
  0
LINE
  5
205
  8
DATA
  6
CONTINUOUS
 62
     7
 10
-19.49999999963671
 20
29.699999999999999
 30
0.0
 11
-14.49999999963671
 21
30.45000000000001
 31
0.0
  0
LINE
  5
206
  8
DATA
  6
CONTINUOUS
 62
     7
 10
-19.49999999963671
 20
27.70000000000001
 30
0.0
 11
-14.49999999963671
 21
28.449999999999999
 31
0.0
  0
LINE
  5
207
  8
DATA
  6
CONTINUOUS
 62
     7
 10
-19.49999999963671
 20
25.70000000000001
 30
0.0
 11
-14.49999999963671
 21
26.45000000000001
 31
0.0
  0
LINE
  5
208
  8
DATA
  6
CONTINUOUS
 62
     7
 10
-19.49999999963671
 20
23.699999999999999
 30
0.0
 11
-14.49999999963671
 21
24.45000000000001
 31
0.0
  0
LINE
  5
209
  8
DATA
  6
CONTINUOUS
 62
     7
 10
-19.49999999963671
 20
21.70000000000001
 30
0.0
 11
-14.49999999963671
 21
22.449999999999999
 31
0.0
  0
LINE
  5
20A
  8
DATA
  6
CONTINUOUS
 62
     7
 10
-19.49999999963671
 20
19.699999999999999
 30
0.0
 11
-14.49999999963671
 21
20.45000000000001
 31
0.0
  0
LINE
  5
20B
  8
DATA
  6
CONTINUOUS
 62
     7
 10
-19.49999999963671
 20
17.699999999999999
 30
0.0
 11
-14.49999999963671
 21
18.449999999999999
 31
0.0
  0
LINE
  5
20C
  8
DATA
  6
CONTINUOUS
 62
     7
 10
-19.49999999963671
 20
15.699999999999999
 30
0.0
 11
-14.49999999963671
 21
16.449999999999999
 31
0.0
  0
LINE
  5
20D
  8
DATA
  6
CONTINUOUS
 62
     7
 10
-19.49999999963671
 20
13.699999999999999
 30
0.0
 11
-14.49999999963671
 21
14.449999999999999
 31
0.0
  0
LINE
  5
20E
  8
DATA
  6
CONTINUOUS
 62
     7
 10
-19.49999999963671
 20
11.70000000000001
 30
0.0
 11
-14.49999999963671
 21
12.449999999999999
 31
0.0
  0
LINE
  5
20F
  8
DATA
  6
CONTINUOUS
 62
     7
 10
-19.49999999963671
 20
9.7000000000000153
 30
0.0
 11
-14.49999999963671
 21
10.45000000000001
 31
0.0
  0
LINE
  5
210
  8
DATA
  6
CONTINUOUS
 62
     7
 10
-19.49999999963671
 20
7.7000000000000171
 30
0.0
 11
-14.49999999963671
 21
8.4500000000000171
 31
0.0
  0
LINE
  5
211
  8
DATA
  6
CONTINUOUS
 62
     7
 10
-19.49999999963671
 20
5.7000000000000171
 30
0.0
 11
-14.49999999963671
 21
6.4500000000000171
 31
0.0
  0
LINE
  5
212
  8
DATA
  6
CONTINUOUS
 62
     7
 10
-19.49999999963671
 20
3.7000000000000162
 30
0.0
 11
-14.49999999963671
 21
4.4500000000000171
 31
0.0
  0
LINE
  5
213
  8
DATA
  6
CONTINUOUS
 62
     7
 10
-19.49999999963671
 20
1.7000000000000171
 30
0.0
 11
-14.49999999963671
 21
2.4500000000000162
 31
0.0
  0
POLYLINE
  5
214
  8
DATA
  6
CONTINUOUS
 62
     7
 66
     1
 10
0.0
 20
0.0
 30
0.0
 70
     1
  0
VERTEX
  5
4A7
  8
DATA
  6
CONTINUOUS
 62
     7
 10
-18.448213864040209
 20
85.750000000000014
 30
0.0
  0
VERTEX
  5
4A8
  8
DATA
  6
CONTINUOUS
 62
     7
 10
-17.948213864040209
 20
85.750000000000014
 30
0.0
  0
VERTEX
  5
4A9
  8
DATA
  6
CONTINUOUS
 62
     7
 10
-17.948213864040209
 20
75.75
 30
0.0
  0
VERTEX
  5
4AA
  8
DATA
  6
CONTINUOUS
 62
     7
 10
-18.448213864040209
 20
75.75
 30
0.0
  0
SEQEND
  5
4AB
  8
DATA
  6
CONTINUOUS
 62
     7
  0
POLYLINE
  5
21B
  8
DATA
  6
CONTINUOUS
 62
     7
 66
     1
 10
0.0
 20
0.0
 30
0.0
 70
     1
  0
VERTEX
  5
4AC
  8
DATA
  6
CONTINUOUS
 62
     7
 10
-16.051786135233211
 20
85.750000000000014
 30
0.0
  0
VERTEX
  5
4AD
  8
DATA
  6
CONTINUOUS
 62
     7
 10
-15.551786135233209
 20
85.750000000000014
 30
0.0
  0
VERTEX
  5
4AE
  8
DATA
  6
CONTINUOUS
 62
     7
 10
-15.551786135233209
 20
75.75
 30
0.0
  0
VERTEX
  5
4AF
  8
DATA
  6
CONTINUOUS
 62
     7
 10
-16.051786135233211
 20
75.75
 30
0.0
  0
SEQEND
  5
4B0
  8
DATA
  6
CONTINUOUS
 62
     7
  0
POLYLINE
  5
222
  8
DATA
  6
CONTINUOUS
 62
     7
 66
     1
 10
0.0
 20
0.0
 30
0.0
 70
     1
  0
VERTEX
  5
4B1
  8
DATA
  6
CONTINUOUS
 62
     7
 10
-20.848213864040211
 20
85.750000000000014
 30
0.0
  0
VERTEX
  5
4B2
  8
DATA
  6
CONTINUOUS
 62
     7
 10
-20.348213864040218
 20
85.750000000000014
 30
0.0
  0
VERTEX
  5
4B3
  8
DATA
  6
CONTINUOUS
 62
     7
 10
-20.348213864040218
 20
75.75
 30
0.0
  0
VERTEX
  5
4B4
  8
DATA
  6
CONTINUOUS
 62
     7
 10
-20.848213864040211
 20
75.75
 30
0.0
  0
SEQEND
  5
4B5
  8
DATA
  6
CONTINUOUS
 62
     7
  0
POLYLINE
  5
229
  8
DATA
  6
CONTINUOUS
 62
     7
 66
     1
 10
0.0
 20
0.0
 30
0.0
 70
     1
  0
VERTEX
  5
4B6
  8
DATA
  6
CONTINUOUS
 62
     7
 10
-13.651786135233211
 20
85.750000000000014
 30
0.0
  0
VERTEX
  5
4B7
  8
DATA
  6
CONTINUOUS
 62
     7
 10
-13.1517861352332
 20
85.750000000000014
 30
0.0
  0
VERTEX
  5
4B8
  8
DATA
  6
CONTINUOUS
 62
     7
 10
-13.1517861352332
 20
75.75
 30
0.0
  0
VERTEX
  5
4B9
  8
DATA
  6
CONTINUOUS
 62
     7
 10
-13.651786135233211
 20
75.75
 30
0.0
  0
SEQEND
  5
4BA
  8
DATA
  6
CONTINUOUS
 62
     7
  0
LINE
  5
230
  8
DATA
  6
CONTINUOUS
 62
     7
 10
-22.749999999636721
 20
86.150000000000006
 30
0.0
 11
-11.24999999963671
 21
86.150000000000006
 31
0.0
  0
LINE
  5
231
  8
DATA
  6
CONTINUOUS
 62
     7
 10
-22.309999999636691
 20
86.150000000000006
 30
0.0
 11
-22.309999999636691
 21
86.75
 31
0.0
  0
LINE
  5
232
  8
DATA
  6
CONTINUOUS
 62
     7
 10
-11.68999999963674
 20
86.150000000000006
 30
0.0
 11
-11.68999999963674
 21
86.75
 31
0.0
  0
POLYLINE
  5
233
  8
DATA
  6
CONTINUOUS
 62
     7
 66
     1
 10
0.0
 20
0.0
 30
0.0
  0
VERTEX
  5
4BB
  8
DATA
  6
CONTINUOUS
 62
     7
 10
-14.99999999963671
 20
70.049999999999983
 30
0.0
  0
VERTEX
  5
4BC
  8
DATA
  6
CONTINUOUS
 62
     7
 10
-14.99999999963671
 20
69.049999999999997
 30
0.0
  0
VERTEX
  5
4BD
  8
DATA
  6
CONTINUOUS
 62
     7
 10
-18.99999999963671
 20
69.049999999999997
 30
0.0
  0
VERTEX
  5
4BE
  8
DATA
  6
CONTINUOUS
 62
     7
 10
-18.99999999963671
 20
70.049999999999983
 30
0.0
  0
SEQEND
  5
4BF
  8
DATA
  6
CONTINUOUS
 62
     7
  0
LINE
  5
23A
  8
DATA
  6
CONTINUOUS
 62
     7
 10
-22.849999999636712
 20
61.850000000000001
 30
0.0
 11
-28.499999999636689
 21
63.25
 31
0.0
  0
LINE
  5
23B
  8
DATA
  6
CONTINUOUS
 62
     7
 10
-11.149999999636719
 20
61.850000000000001
 30
0.0
 11
-5.4999999996367128
 21
63.25
 31
0.0
  0
LINE
  5
23C
  8
DATA
  6
CONTINUOUS
 62
     7
 10
-22.749999999636721
 20
70.249999999999986
 30
0.0
 11
-11.24999999963668
 21
70.249999999999986
 31
0.0
  0
LINE
  5
23D
  8
DATA
  6
CONTINUOUS
 62
     7
 10
-22.749999999636721
 20
71.249999999999986
 30
0.0
 11
-11.24999999963668
 21
71.249999999999986
 31
0.0
  0
LINE
  5
23E
  8
DATA
  6
CONTINUOUS
 62
     7
 10
187.5000000003634
 20
-6.25
 30
0.0
 11
203.5000000003634
 21
-6.25
 31
0.0
  0
LINE
  5
23F
  8
DATA
  6
CONTINUOUS
 62
     7
 10
187.5000000003634
 20
-6.25
 30
0.0
 11
187.5000000003634
 21
38.776033541938801
 31
0.0
  0
LINE
  5
240
  8
DATA
  6
CONTINUOUS
 62
     7
 10
187.5000000003634
 20
51.250039949617999
 30
0.0
 11
187.5000000003634
 21
60.75
 31
0.0
  0
LINE
  5
241
  8
DATA
  6
CONTINUOUS
 62
     7
 10
203.5000000003634
 20
-6.25
 30
0.0
 11
203.5000000003634
 21
35.75
 31
0.0
  0
LINE
  5
242
  8
DATA
  6
CONTINUOUS
 62
     7
 10
193.30000000036341
 20
35.75
 30
0.0
 11
207.50000000036329
 21
35.75
 31
0.0
  0
LINE
  5
243
  8
DATA
  6
CONTINUOUS
 62
     7
 10
207.50000000036329
 20
35.75
 30
0.0
 11
207.50000000036329
 21
61.650000000300032
 31
0.0
  0
LINE
  5
244
  8
DATA
  6
CONTINUOUS
 62
     7
 10
191.05000000036341
 20
51.850000000000023
 30
0.0
 11
193.0000000003634
 21
51.850000000000023
 31
0.0
  0
LINE
  5
245
  8
DATA
  6
CONTINUOUS
 62
     7
 10
173.5000000003634
 20
42.850000000000009
 30
0.0
 11
173.5000000003634
 21
51.850000000000023
 31
0.0
  0
ARC
  5
246
  8
DATA
  6
CONTINUOUS
 62
     7
 10
192.45945378450531
 20
81.911134465749413
 30
0.0
 40
43.419271223091279
 50
244.10903822980299
 51
270.71331959314608
  0
LINE
  5
247
  8
DATA
  6
CONTINUOUS
 62
     7
 10
193.0000000003634
 20
38.49522812564301
 30
0.0
 11
193.0000000003634
 21
51.850000000000023
 31
0.0
  0
ARC
  5
248
  8
DATA
  6
CONTINUOUS
 62
     7
 10
182.27500000036341
 20
92.969444458450241
 30
0.0
 40
42.045324800405247
 50
257.95362412639918
 51
282.04637587360082
  0
LINE
  5
249
  8
DATA
  6
CONTINUOUS
 62
     7
 10
186.15000000036341
 20
60.75
 30
0.0
 11
193.30000000036341
 21
60.75
 31
0.0
  0
LINE
  5
24A
  8
DATA
  6
CONTINUOUS
 62
     7
 10
168.5000000003634
 20
60.75
 30
0.0
 11
168.5000000003634
 21
70.249999999999986
 31
0.0
  0
LINE
  5
24B
  8
DATA
  6
CONTINUOUS
 62
     7
 10
188.35000000036331
 20
75.749999999999986
 30
0.0
 11
209.9628240842664
 21
75.749999999999986
 31
0.0
  0
ARC
  5
24C
  8
DATA
  6
CONTINUOUS
 62
     7
 10
192.0539921895014
 20
23.811728190111001
 30
0.0
 40
52.070179918405358
 50
94.079158329179705
 51
116.89461489685
  0
ARC
  5
24D
  8
DATA
  6
CONTINUOUS
 62
     7
 10
177.3250000003635
 20
38.945588239442188
 30
0.0
 40
23.522606089120959
 50
67.965117004884476
 51
112.03488299511569
  0
LINE
  5
24E
  8
DATA
  6
CONTINUOUS
 62
     7
 10
198.65000000036329
 20
72.749999999999986
 30
0.0
 11
202.0000000003634
 21
72.749999999999986
 31
0.0
  0
LINE
  5
24F
  8
DATA
  6
CONTINUOUS
 62
     7
 10
207.50000000036329
 20
35.75
 30
0.0
 11
207.50000000036329
 21
70.765501215667982
 31
0.0
  0
LINE
  5
250
  8
DATA
  6
CONTINUOUS
 62
     7
 10
202.0000000003634
 20
35.75
 30
0.0
 11
202.0000000003634
 21
72.749999999999986
 31
0.0
  0
LINE
  5
251
  8
DATA
  6
CONTINUOUS
 62
     7
 10
198.20000000036339
 20
35.75
 30
0.0
 11
198.65000000036329
 21
72.749999999999986
 31
0.0
  0
LINE
  5
252
  8
DATA
  6
CONTINUOUS
 62
     7
 10
190.1900000003634
 20
86.75
 30
0.0
 11
200.8100000003632
 21
86.75
 31
0.0
  0
LINE
  5
253
  8
DATA
  6
CONTINUOUS
 62
     7
 10
189.7500000003634
 20
75.749999999999986
 30
0.0
 11
189.7500000003634
 21
86.150000000000006
 31
0.0
  0
LINE
  5
254
  8
DATA
  6
CONTINUOUS
 62
     7
 10
201.2500000003634
 20
86.150000000000006
 30
0.0
 11
201.2500000003634
 21
75.749999999999986
 31
0.0
  0
POLYLINE
  5
255
  8
DATA
  6
CONTINUOUS
 62
     7
 66
     1
 10
0.0
 20
0.0
 30
0.0
 70
     1
  0
VERTEX
  5
4C0
  8
DATA
  6
CONTINUOUS
 62
     7
 10
194.0517861359599
 20
85.750000000000014
 30
0.0
  0
VERTEX
  5
4C1
  8
DATA
  6
CONTINUOUS
 62
     7
 10
194.5517861359599
 20
85.750000000000014
 30
0.0
  0
VERTEX
  5
4C2
  8
DATA
  6
CONTINUOUS
 62
     7
 10
194.5517861359599
 20
75.75
 30
0.0
  0
VERTEX
  5
4C3
  8
DATA
  6
CONTINUOUS
 62
     7
 10
194.0517861359599
 20
75.75
 30
0.0
  0
SEQEND
  5
4C4
  8
DATA
  6
CONTINUOUS
 62
     7
  0
POLYLINE
  5
25C
  8
DATA
  6
CONTINUOUS
 62
     7
 66
     1
 10
0.0
 20
0.0
 30
0.0
 70
     1
  0
VERTEX
  5
4C5
  8
DATA
  6
CONTINUOUS
 62
     7
 10
196.44821386476681
 20
85.750000000000014
 30
0.0
  0
VERTEX
  5
4C6
  8
DATA
  6
CONTINUOUS
 62
     7
 10
196.94821386476681
 20
85.750000000000014
 30
0.0
  0
VERTEX
  5
4C7
  8
DATA
  6
CONTINUOUS
 62
     7
 10
196.94821386476681
 20
75.75
 30
0.0
  0
VERTEX
  5
4C8
  8
DATA
  6
CONTINUOUS
 62
     7
 10
196.44821386476681
 20
75.75
 30
0.0
  0
SEQEND
  5
4C9
  8
DATA
  6
CONTINUOUS
 62
     7
  0
POLYLINE
  5
263
  8
DATA
  6
CONTINUOUS
 62
     7
 66
     1
 10
0.0
 20
0.0
 30
0.0
 70
     1
  0
VERTEX
  5
4CA
  8
DATA
  6
CONTINUOUS
 62
     7
 10
191.6517861359599
 20
85.750000000000014
 30
0.0
  0
VERTEX
  5
4CB
  8
DATA
  6
CONTINUOUS
 62
     7
 10
192.1517861359599
 20
85.750000000000014
 30
0.0
  0
VERTEX
  5
4CC
  8
DATA
  6
CONTINUOUS
 62
     7
 10
192.1517861359599
 20
75.75
 30
0.0
  0
VERTEX
  5
4CD
  8
DATA
  6
CONTINUOUS
 62
     7
 10
191.6517861359599
 20
75.75
 30
0.0
  0
SEQEND
  5
4CE
  8
DATA
  6
CONTINUOUS
 62
     7
  0
POLYLINE
  5
26A
  8
DATA
  6
CONTINUOUS
 62
     7
 66
     1
 10
0.0
 20
0.0
 30
0.0
 70
     1
  0
VERTEX
  5
4CF
  8
DATA
  6
CONTINUOUS
 62
     7
 10
198.84821386476679
 20
85.750000000000014
 30
0.0
  0
VERTEX
  5
4D0
  8
DATA
  6
CONTINUOUS
 62
     7
 10
199.34821386476679
 20
85.750000000000014
 30
0.0
  0
VERTEX
  5
4D1
  8
DATA
  6
CONTINUOUS
 62
     7
 10
199.34821386476679
 20
75.75
 30
0.0
  0
VERTEX
  5
4D2
  8
DATA
  6
CONTINUOUS
 62
     7
 10
198.84821386476679
 20
75.75
 30
0.0
  0
SEQEND
  5
4D3
  8
DATA
  6
CONTINUOUS
 62
     7
  0
LINE
  5
271
  8
DATA
  6
CONTINUOUS
 62
     7
 10
189.7500000003634
 20
86.150000000000006
 30
0.0
 11
201.2500000003634
 21
86.150000000000006
 31
0.0
  0
LINE
  5
272
  8
DATA
  6
CONTINUOUS
 62
     7
 10
190.1900000003634
 20
86.150000000000006
 30
0.0
 11
190.1900000003634
 21
86.75
 31
0.0
  0
LINE
  5
273
  8
DATA
  6
CONTINUOUS
 62
     7
 10
200.8100000003632
 20
86.150000000000006
 30
0.0
 11
200.8100000003632
 21
86.75
 31
0.0
  0
CIRCLE
  5
274
  8
DATA
  6
CONTINUOUS
 62
     7
 10
215.02500000014479
 20
70.250000000300005
 30
0.0
 40
7.4749999999999659
  0
CIRCLE
  5
275
  8
DATA
  6
CONTINUOUS
 62
     7
 10
215.02500000014479
 20
70.250000000300005
 30
0.0
 40
6.6000000000000014
  0
LINE
  5
276
  8
DATA
  6
CONTINUOUS
 62
     7
 10
208.84587806327289
 20
74.8500000003
 30
0.0
 11
209.13300330971819
 21
74.8500000003
 31
0.0
  0
LINE
  5
277
  8
DATA
  6
CONTINUOUS
 62
     7
 10
207.50000000036329
 20
70.765501215667982
 30
0.0
 11
207.8518923719368
 21
73.959510024586024
 31
0.0
  0
LINE
  5
278
  8
DATA
  6
CONTINUOUS
 62
     7
 10
13.995000000363291
 20
85.750000000000014
 30
0.0
 11
13.995000000363291
 21
78.75
 31
0.0
  0
LINE
  5
279
  8
DATA
  6
CONTINUOUS
 62
     7
 10
2.9950000003632899
 20
78.75
 30
0.0
 11
2.9950000003632899
 21
85.750000000000014
 31
0.0
  0
LINE
  5
27A
  8
DATA
  6
CONTINUOUS
 62
     7
 10
13.995000000363291
 20
85.750000000000014
 30
0.0
 11
2.9950000003632899
 21
85.750000000000014
 31
0.0
  0
LINE
  5
27B
  8
DATA
  6
CONTINUOUS
 62
     7
 10
3.7700000003632681
 20
77.725000000300014
 30
0.0
 11
3.7700000003632681
 21
78.75
 31
0.0
  0
LINE
  5
27C
  8
DATA
  6
CONTINUOUS
 62
     7
 10
13.22000000036325
 20
78.75
 30
0.0
 11
13.22000000036325
 21
77.725000000300014
 31
0.0
  0
LINE
  5
27D
  8
DATA
  6
CONTINUOUS
 62
     7
 10
2.9950000003632899
 20
78.75
 30
0.0
 11
14.00500000036328
 21
78.75
 31
0.0
  0
LINE
  5
27E
  8
DATA
  6
CONTINUOUS
 62
     7
 10
5.5450000003633022
 20
85.750000000000014
 30
0.0
 11
5.5450000003633022
 21
136.75
 31
0.0
  0
LINE
  5
27F
  8
DATA
  6
CONTINUOUS
 62
     7
 10
11.445000000363279
 20
136.75
 30
0.0
 11
11.445000000363279
 21
85.750000000000014
 31
0.0
  0
LINE
  5
280
  8
DATA
  6
CONTINUOUS
 62
     7
 10
12.995000000363291
 20
136.75
 30
0.0
 11
3.9950000003632899
 21
136.75
 31
0.0
  0
LINE
  5
281
  8
DATA
  6
CONTINUOUS
 62
     7
 10
13.395000000363259
 20
148.75
 30
0.0
 11
3.5950000003632558
 21
148.75
 31
0.0
  0
LINE
  5
282
  8
DATA
  6
CONTINUOUS
 62
     7
 10
3.9950000003632899
 20
136.75
 30
0.0
 11
3.5950000003632558
 21
148.75
 31
0.0
  0
LINE
  5
283
  8
DATA
  6
CONTINUOUS
 62
     7
 10
12.995000000363291
 20
136.75
 30
0.0
 11
13.395000000363259
 21
148.75
 31
0.0
  0
LINE
  5
284
  8
DATA
  6
CONTINUOUS
 62
     7
 10
13.395000000363259
 20
166.75
 30
0.0
 11
3.5950000003632558
 21
166.75
 31
0.0
  0
LINE
  5
285
  8
DATA
  6
CONTINUOUS
 62
     7
 10
3.5950000003632558
 20
148.75
 30
0.0
 11
3.5950000003632558
 21
179.4262352984951
 31
0.0
  0
LINE
  5
286
  8
DATA
  6
CONTINUOUS
 62
     7
 10
13.395000000363259
 20
148.75
 30
0.0
 11
13.395000000363259
 21
179.4262352984951
 31
0.0
  0
CIRCLE
  5
287
  8
DATA
  6
CONTINUOUS
 62
     7
 10
8.4950000003632891
 20
185.75
 30
0.0
 40
8.0
  0
CIRCLE
  5
288
  8
DATA
  6
CONTINUOUS
 62
     7
 10
8.4950000003632891
 20
185.75
 30
0.0
 40
3.9499999999999882
  0
CIRCLE
  5
289
  8
DATA
  6
CONTINUOUS
 62
     7
 10
8.4950000003632891
 20
185.75
 30
0.0
 40
5.849999999999965
  0
LINE
  5
28A
  8
DATA
  6
CONTINUOUS
 62
     7
 10
6.5450000003633022
 20
191.26543289325511
 30
0.0
 11
6.5450000003633022
 21
193.5087047888162
 31
0.0
  0
LINE
  5
28B
  8
DATA
  6
CONTINUOUS
 62
     7
 10
10.445000000363279
 20
191.26543289325511
 30
0.0
 11
10.445000000363279
 21
193.5087047888162
 31
0.0
  0
LINE
  5
28C
  8
DATA
  6
CONTINUOUS
 62
     7
 10
12.296504998790279
 20
190.19646598400701
 30
0.0
 11
14.239235447942519
 21
191.31810193178799
 31
0.0
  0
LINE
  5
28D
  8
DATA
  6
CONTINUOUS
 62
     7
 10
14.246504998791011
 20
186.81896690924819
 30
0.0
 11
16.189235447942789
 21
187.94060285702889
 31
0.0
  0
LINE
  5
28E
  8
DATA
  6
CONTINUOUS
 62
     7
 10
4.693495001935502
 20
190.19646598400749
 30
0.0
 11
2.7507645527846298
 21
191.3181019317876
 31
0.0
  0
LINE
  5
28F
  8
DATA
  6
CONTINUOUS
 62
     7
 10
2.74349500193631
 20
186.81896690924771
 30
0.0
 11
0.8007645527852673
 21
187.94060285702801
 31
0.0
  0
LINE
  5
290
  8
DATA
  6
CONTINUOUS
 62
     7
 10
2.74349500193631
 20
184.68103309075221
 30
0.0
 11
0.8007645527840168
 21
183.55939714297131
 31
0.0
  0
LINE
  5
291
  8
DATA
  6
CONTINUOUS
 62
     7
 10
4.693495001935502
 20
181.30353401599251
 30
0.0
 11
2.7507645527836639
 21
180.18189806821181
 31
0.0
  0
LINE
  5
292
  8
DATA
  6
CONTINUOUS
 62
     7
 10
6.5450000003633022
 20
177.99129521118371
 30
0.0
 11
6.5450000003633022
 21
180.23456710674489
 31
0.0
  0
LINE
  5
293
  8
DATA
  6
CONTINUOUS
 62
     7
 10
10.445000000363279
 20
177.99129521118371
 30
0.0
 11
10.445000000363279
 21
180.23456710674489
 31
0.0
  0
LINE
  5
294
  8
DATA
  6
CONTINUOUS
 62
     7
 10
14.239235447941381
 20
180.18189806821269
 30
0.0
 11
12.29650499879034
 21
181.30353401599291
 31
0.0
  0
LINE
  5
295
  8
DATA
  6
CONTINUOUS
 62
     7
 10
16.18923544794194
 20
183.55939714297159
 30
0.0
 11
14.246504998791011
 21
184.6810330907517
 31
0.0
  0
LINE
  5
296
  8
DATA
  6
CONTINUOUS
 62
     7
 10
5.5450000003633022
 20
86.5
 30
0.0
 11
11.445000000363279
 21
87.450000000000017
 31
0.0
  0
LINE
  5
297
  8
DATA
  6
CONTINUOUS
 62
     7
 10
5.5450000003633022
 20
88.499999999999986
 30
0.0
 11
11.445000000363279
 21
89.450000000000017
 31
0.0
  0
LINE
  5
298
  8
DATA
  6
CONTINUOUS
 62
     7
 10
5.5450000003633022
 20
90.5
 30
0.0
 11
11.445000000363279
 21
91.450000000000017
 31
0.0
  0
LINE
  5
299
  8
DATA
  6
CONTINUOUS
 62
     7
 10
5.5450000003633022
 20
92.5
 30
0.0
 11
11.445000000363279
 21
93.450000000000003
 31
0.0
  0
LINE
  5
29A
  8
DATA
  6
CONTINUOUS
 62
     7
 10
5.5450000003633022
 20
94.500000000000014
 30
0.0
 11
11.445000000363279
 21
95.449999999999989
 31
0.0
  0
LINE
  5
29B
  8
DATA
  6
CONTINUOUS
 62
     7
 10
5.5450000003633022
 20
96.5
 30
0.0
 11
11.445000000363279
 21
97.450000000000003
 31
0.0
  0
LINE
  5
29C
  8
DATA
  6
CONTINUOUS
 62
     7
 10
5.5450000003633022
 20
98.500000000000014
 30
0.0
 11
11.445000000363279
 21
99.450000000000003
 31
0.0
  0
LINE
  5
29D
  8
DATA
  6
CONTINUOUS
 62
     7
 10
5.5450000003633022
 20
100.5
 30
0.0
 11
11.445000000363279
 21
101.45
 31
0.0
  0
LINE
  5
29E
  8
DATA
  6
CONTINUOUS
 62
     7
 10
5.5450000003633022
 20
102.5
 30
0.0
 11
11.445000000363279
 21
103.45
 31
0.0
  0
LINE
  5
29F
  8
DATA
  6
CONTINUOUS
 62
     7
 10
5.5450000003633022
 20
104.5
 30
0.0
 11
11.445000000363279
 21
105.45
 31
0.0
  0
LINE
  5
2A0
  8
DATA
  6
CONTINUOUS
 62
     7
 10
5.5450000003633022
 20
106.5
 30
0.0
 11
11.445000000363279
 21
107.45
 31
0.0
  0
LINE
  5
2A1
  8
DATA
  6
CONTINUOUS
 62
     7
 10
5.5450000003633022
 20
108.5
 30
0.0
 11
11.445000000363279
 21
109.45
 31
0.0
  0
LINE
  5
2A2
  8
DATA
  6
CONTINUOUS
 62
     7
 10
5.5450000003633022
 20
110.5
 30
0.0
 11
11.445000000363279
 21
111.45
 31
0.0
  0
LINE
  5
2A3
  8
DATA
  6
CONTINUOUS
 62
     7
 10
5.5450000003633022
 20
112.5
 30
0.0
 11
11.445000000363279
 21
113.45
 31
0.0
  0
LINE
  5
2A4
  8
DATA
  6
CONTINUOUS
 62
     7
 10
5.5450000003633022
 20
114.5
 30
0.0
 11
11.445000000363279
 21
115.45
 31
0.0
  0
LINE
  5
2A5
  8
DATA
  6
CONTINUOUS
 62
     7
 10
5.5450000003633022
 20
116.5
 30
0.0
 11
11.445000000363279
 21
117.45
 31
0.0
  0
LINE
  5
2A6
  8
DATA
  6
CONTINUOUS
 62
     7
 10
5.5450000003633022
 20
118.5
 30
0.0
 11
11.445000000363279
 21
119.45
 31
0.0
  0
LINE
  5
2A7
  8
DATA
  6
CONTINUOUS
 62
     7
 10
5.5450000003633022
 20
120.5
 30
0.0
 11
11.445000000363279
 21
121.45
 31
0.0
  0
LINE
  5
2A8
  8
DATA
  6
CONTINUOUS
 62
     7
 10
5.5450000003633022
 20
122.5
 30
0.0
 11
11.445000000363279
 21
123.45
 31
0.0
  0
LINE
  5
2A9
  8
DATA
  6
CONTINUOUS
 62
     7
 10
5.5450000003633022
 20
124.5
 30
0.0
 11
11.445000000363279
 21
125.45
 31
0.0
  0
LINE
  5
2AA
  8
DATA
  6
CONTINUOUS
 62
     7
 10
5.5450000003633022
 20
126.5
 30
0.0
 11
11.445000000363279
 21
127.45
 31
0.0
  0
LINE
  5
2AB
  8
DATA
  6
CONTINUOUS
 62
     7
 10
5.5450000003633022
 20
128.5
 30
0.0
 11
11.445000000363279
 21
129.44999999999999
 31
0.0
  0
LINE
  5
2AC
  8
DATA
  6
CONTINUOUS
 62
     7
 10
5.5450000003633022
 20
130.5
 30
0.0
 11
11.445000000363279
 21
131.44999999999999
 31
0.0
  0
LINE
  5
2AD
  8
DATA
  6
CONTINUOUS
 62
     7
 10
5.5450000003633022
 20
132.5
 30
0.0
 11
11.445000000363279
 21
133.44999999999999
 31
0.0
  0
LINE
  5
2AE
  8
DATA
  6
CONTINUOUS
 62
     7
 10
5.5450000003633022
 20
134.5
 30
0.0
 11
11.445000000363279
 21
135.44999999999999
 31
0.0
  0
LINE
  5
2AF
  8
DATA
  6
CONTINUOUS
 62
     7
 10
1.4950000003632899
 20
49.75
 30
0.0
 11
1.4950000003632899
 21
61.75
 31
0.0
  0
LINE
  5
2B0
  8
DATA
  6
CONTINUOUS
 62
     7
 10
15.495000000363291
 20
61.75
 30
0.0
 11
15.495000000363291
 21
49.75
 31
0.0
  0
LINE
  5
2B1
  8
DATA
  6
CONTINUOUS
 62
     7
 10
14.2950000003633
 20
48.75
 30
0.0
 11
2.695000000363279
 21
48.75
 31
0.0
  0
LINE
  5
2B2
  8
DATA
  6
CONTINUOUS
 62
     7
 10
14.2950000003633
 20
49.75
 30
0.0
 11
14.2950000003633
 21
48.75
 31
0.0
  0
LINE
  5
2B3
  8
DATA
  6
CONTINUOUS
 62
     7
 10
2.695000000363279
 20
48.75
 30
0.0
 11
2.695000000363279
 21
49.75
 31
0.0
  0
LINE
  5
2B4
  8
DATA
  6
CONTINUOUS
 62
     7
 10
1.4950000003632899
 20
49.75
 30
0.0
 11
15.495000000363291
 21
49.75
 31
0.0
  0
LINE
  5
2B5
  8
DATA
  6
CONTINUOUS
 62
     7
 10
15.495000000363291
 20
61.75
 30
0.0
 11
1.4950000003632899
 21
61.75
 31
0.0
  0
LINE
  5
2B6
  8
DATA
  6
CONTINUOUS
 62
     7
 10
1.9950000003632899
 20
61.75
 30
0.0
 11
1.9950000003632899
 21
62.775000000299997
 31
0.0
  0
LINE
  5
2B7
  8
DATA
  6
CONTINUOUS
 62
     7
 10
14.995000000363291
 20
62.775000000299997
 30
0.0
 11
14.995000000363291
 21
61.75
 31
0.0
  0
LINE
  5
2B8
  8
DATA
  6
CONTINUOUS
 62
     7
 10
17.500000000363279
 20
77.725000000300014
 30
0.0
 11
13.22000000036325
 21
77.725000000300014
 31
0.0
  0
LINE
  5
2B9
  8
DATA
  6
CONTINUOUS
 62
     7
 10
3.7700000003632681
 20
77.725000000300014
 30
0.0
 11
-1.499999999636713
 21
77.725000000300014
 31
0.0
  0
LINE
  5
2BA
  8
DATA
  6
CONTINUOUS
 62
     7
 10
-1.999999999636713
 20
77.725000000300014
 30
0.0
 11
-4.2999999996367251
 21
77.725000000300014
 31
0.0
  0
LINE
  5
2BB
  8
DATA
  6
CONTINUOUS
 62
     7
 10
17.500000000363279
 20
62.775000000299997
 30
0.0
 11
14.99500000036317
 21
62.775000000299997
 31
0.0
  0
LINE
  5
2BC
  8
DATA
  6
CONTINUOUS
 62
     7
 10
1.995000000363347
 20
62.775000000299997
 30
0.0
 11
-1.499999999636713
 21
62.775000000299997
 31
0.0
  0
LINE
  5
2BD
  8
DATA
  6
CONTINUOUS
 62
     7
 10
-1.999999999636713
 20
62.775000000299997
 30
0.0
 11
-4.2999999996367251
 21
62.775000000299997
 31
0.0
  0
LINE
  5
2BE
  8
DATA
  6
CONTINUOUS
 62
     7
 10
17.500000000363279
 20
62.775000000299997
 30
0.0
 11
17.500000000363279
 21
77.725000000300014
 31
0.0
  0
LINE
  5
2BF
  8
DATA
  6
CONTINUOUS
 62
     7
 10
-1.499999999636713
 20
62.775000000299997
 30
0.0
 11
-1.499999999636713
 21
77.725000000300014
 31
0.0
  0
LINE
  5
2C0
  8
DATA
  6
CONTINUOUS
 62
     7
 10
-1.999999999636713
 20
62.775000000299997
 30
0.0
 11
-1.999999999636713
 21
77.725000000300014
 31
0.0
  0
LINE
  5
2C1
  8
DATA
  6
CONTINUOUS
 62
     7
 10
-4.2999999996367251
 20
62.775000000299997
 30
0.0
 11
-4.2999999996367251
 21
77.725000000300014
 31
0.0
  0
ARC
  5
2C2
  8
DATA
  6
CONTINUOUS
 62
     7
 10
8.4950000003632624
 20
90.044985714585593
 30
0.0
 40
13.19498666161512
 50
249.01702376229369
 51
290.98297623770628
  0
ARC
  5
2C3
  8
DATA
  6
CONTINUOUS
 62
     7
 10
8.4950000003632624
 20
54.851483871267632
 30
0.0
 40
10.248517348721061
 50
50.636502589069771
 51
129.36349741092999
  0
LINE
  5
2C4
  8
DATA
  6
CONTINUOUS
 62
     7
 10
-19.49999999963671
 20
58.855599731566492
 30
0.0
 11
-14.49999999963671
 21
59.605599731566571
 31
0.0
  0
LINE
  5
2C5
  8
DATA
  6
CONTINUOUS
 62
     7
 10
-19.49999999963671
 20
56.855599731566492
 30
0.0
 11
-14.49999999963671
 21
57.605599731566492
 31
0.0
  0
LINE
  5
2C6
  8
DATA
  6
CONTINUOUS
 62
     7
 10
-19.49999999963671
 20
54.855599731566492
 30
0.0
 11
-14.49999999963671
 21
55.605599731566492
 31
0.0
  0
LINE
  5
2C7
  8
DATA
  6
CONTINUOUS
 62
     7
 10
-19.49999999963671
 20
52.855599731566492
 30
0.0
 11
-14.49999999963671
 21
53.605599731566492
 31
0.0
  0
LINE
  5
2C8
  8
DATA
  6
CONTINUOUS
 62
     7
 10
193.30000000036341
 20
35.75
 30
0.0
 11
193.30000000036341
 21
75.749999999999986
 31
0.0
  0
ARC
  5
2C9
  8
DATA
  6
CONTINUOUS
 62
     7
 10
208.84587806327289
 20
73.8500000003
 30
0.0
 40
1.0
 50
90.0
 51
173.71292860378841
  0
LINE
  5
2CA
  8
DATA
  6
CONTINUOUS
 62
     7
 10
221.92000000026329
 20
175.50000000029999
 30
0.0
 11
221.92000000026329
 21
193.75
 31
0.0
  0
LINE
  5
2CB
  8
DATA
  6
CONTINUOUS
 62
     7
 10
203.77000000026331
 20
182.24300010367509
 30
0.0
 11
203.77000000026331
 21
189.25699989632491
 31
0.0
  0
ARC
  5
2CC
  8
DATA
  6
CONTINUOUS
 62
     7
 10
215.04195933151129
 20
173.1410494973579
 30
0.0
 40
20.01941178853496
 50
102.96643352930209
 51
123.01534812579111
  0
ARC
  5
2CD
  8
DATA
  6
CONTINUOUS
 62
     7
 10
222.18896971812541
 20
131.65760390070139
 30
0.0
 40
62.092978653478283
 50
90.248190345822167
 51
100.8036690096267
  0
ARC
  5
2CE
  8
DATA
  6
CONTINUOUS
 62
     7
 10
215.04195933151129
 20
198.3589505026421
 30
0.0
 40
20.019411788534939
 50
236.98465187420891
 51
257.03356647069768
  0
ARC
  5
2CF
  8
DATA
  6
CONTINUOUS
 62
     7
 10
222.18896971812541
 20
239.8423960992985
 30
0.0
 40
62.092978653478262
 50
259.19633099037333
 51
269.75180965417792
  0
ARC
  5
2D0
  8
DATA
  6
CONTINUOUS
 62
     7
 10
204.57000000026329
 20
189.25699989632491
 30
0.0
 40
0.7999999999999873
 50
123.0153481257903
 51
180.0
  0
ARC
  5
2D1
  8
DATA
  6
CONTINUOUS
 62
     7
 10
204.57000000026329
 20
182.24300010367509
 30
0.0
 40
0.8000000000000113
 50
180.0
 51
236.9846518742097
  0
LINE
  5
2D2
  8
DATA
  6
CONTINUOUS
 62
     7
 10
221.92000000026329
 20
175.50000000029999
 30
0.0
 11
219.92000000026329
 21
175.50000000029999
 31
0.0
  0
LINE
  5
2D3
  8
DATA
  6
CONTINUOUS
 62
     7
 10
216.92000000026329
 20
188.20000000030001
 30
0.0
 11
216.92000000026329
 21
191.3000000003
 31
0.0
  0
LINE
  5
2D4
  8
DATA
  6
CONTINUOUS
 62
     7
 10
205.9700000002633
 20
187.85000000030001
 30
0.0
 11
205.9700000002633
 21
189.25699989632491
 31
0.0
  0
ARC
  5
2D5
  8
DATA
  6
CONTINUOUS
 62
     7
 10
217.7801776027913
 20
156.32343816798959
 30
0.0
 40
34.987137395296081
 50
91.408789523051695
 51
109.7281455848636
  0
ARC
  5
2D6
  8
DATA
  6
CONTINUOUS
 62
     7
 10
208.0850000003133
 20
293.14499999873738
 30
0.0
 40
105.3162392495627
 50
268.849287427999
 51
274.81220986805181
  0
LINE
  5
2D7
  8
DATA
  6
CONTINUOUS
 62
     7
 10
216.92000000026329
 20
183.29999999969999
 30
0.0
 11
216.92000000026329
 21
180.1999999997
 31
0.0
  0
LINE
  5
2D8
  8
DATA
  6
CONTINUOUS
 62
     7
 10
205.9700000002633
 20
183.64999999969999
 30
0.0
 11
205.9700000002633
 21
182.24300010367509
 31
0.0
  0
ARC
  5
2D9
  8
DATA
  6
CONTINUOUS
 62
     7
 10
217.7801776027913
 20
215.17656183201049
 30
0.0
 40
34.987137395296067
 50
250.2718544151364
 51
268.59121047694828
  0
ARC
  5
2DA
  8
DATA
  6
CONTINUOUS
 62
     7
 10
208.0850000003133
 20
78.355000001262553
 30
0.0
 40
105.3162392495628
 50
85.187790131948134
 51
91.150712572000984
  0
LINE
  5
2DB
  8
DATA
  6
CONTINUOUS
 62
     7
 10
16.500000000213191
 20
289.87404752354189
 30
0.0
 11
0.5000000002132481
 21
289.87404752354189
 31
0.0
  0
LINE
  5
2DC
  8
DATA
  6
CONTINUOUS
 62
     7
 10
12.006999896538129
 20
271.72404752354203
 30
0.0
 11
4.9930001038883347
 21
271.72404752354203
 31
0.0
  0
ARC
  5
2DD
  8
DATA
  6
CONTINUOUS
 62
     7
 10
21.108950502855318
 20
282.99600685478993
 30
0.0
 40
20.019411788534949
 50
192.96643352930201
 51
213.01534812579101
  0
ARC
  5
2DE
  8
DATA
  6
CONTINUOUS
 62
     7
 10
62.592396099511937
 20
290.1430172414041
 30
0.0
 40
62.092978653478461
 50
180.24819034582211
 51
190.8036690096267
  0
ARC
  5
2DF
  8
DATA
  6
CONTINUOUS
 62
     7
 10
-4.1089505024288249
 20
282.99600685478993
 30
0.0
 40
20.019411788534921
 50
326.98465187420891
 51
347.03356647069802
  0
ARC
  5
2E0
  8
DATA
  6
CONTINUOUS
 62
     7
 10
-45.592396099085263
 20
290.1430172414041
 30
0.0
 40
62.092978653478241
 50
349.19633099037321
 51
359.75180965417792
  0
ARC
  5
2E1
  8
DATA
  6
CONTINUOUS
 62
     7
 10
4.9930001038883347
 20
272.52404752354192
 30
0.0
 40
0.7999999999999993
 50
213.0153481257897
 51
270.0
  0
ARC
  5
2E2
  8
DATA
  6
CONTINUOUS
 62
     7
 10
12.006999896538129
 20
272.52404752354192
 30
0.0
 40
0.7999999999999546
 50
270.0
 51
326.98465187421021
  0
LINE
  5
2E3
  8
DATA
  6
CONTINUOUS
 62
     7
 10
6.049999999913239
 20
284.874047523542
 30
0.0
 11
2.9499999999132158
 21
284.874047523542
 31
0.0
  0
LINE
  5
2E4
  8
DATA
  6
CONTINUOUS
 62
     7
 10
6.3999999999132333
 20
273.92404752354201
 30
0.0
 11
4.9930001038883347
 21
273.92404752354201
 31
0.0
  0
ARC
  5
2E5
  8
DATA
  6
CONTINUOUS
 62
     7
 10
37.92656183222369
 20
285.73422512606987
 30
0.0
 40
34.987137395296131
 50
181.40878952305169
 51
199.7281455848636
  0
ARC
  5
2E6
  8
DATA
  6
CONTINUOUS
 62
     7
 10
-98.894999998524213
 20
276.03904752359188
 30
0.0
 40
105.3162392495628
 50
358.84928742799889
 51
4.8122098680518652
  0
LINE
  5
2E7
  8
DATA
  6
CONTINUOUS
 62
     7
 10
10.950000000513249
 20
284.874047523542
 30
0.0
 11
14.050000000513251
 21
284.874047523542
 31
0.0
  0
LINE
  5
2E8
  8
DATA
  6
CONTINUOUS
 62
     7
 10
10.60000000051323
 20
273.92404752354201
 30
0.0
 11
12.006999896538129
 21
273.92404752354201
 31
0.0
  0
ARC
  5
2E9
  8
DATA
  6
CONTINUOUS
 62
     7
 10
-20.926561831797159
 20
285.73422512606987
 30
0.0
 40
34.987137395296067
 50
340.27185441513632
 51
358.59121047694822
  0
ARC
  5
2EA
  8
DATA
  6
CONTINUOUS
 62
     7
 10
115.89499999895089
 20
276.03904752359188
 30
0.0
 40
105.316239249563
 50
175.18779013194811
 51
181.15071257200091
  0
LINE
  5
2EB
  8
DATA
  6
CONTINUOUS
 62
     7
 10
-1.999999999636713
 20
289.50000000032048
 30
0.0
 11
-1.499999999636713
 21
289.50000000032048
 31
0.0
  0
LINE
  5
2EC
  8
DATA
  6
CONTINUOUS
 62
     7
 10
17.500000000363279
 20
291.47500000062053
 30
0.0
 11
-1.499999999636713
 21
291.47500000062053
 31
0.0
  0
LINE
  5
2ED
  8
DATA
  6
CONTINUOUS
 62
     7
 10
-1.999999999636713
 20
291.47500000062053
 30
0.0
 11
-4.2999999996367251
 21
291.47500000062053
 31
0.0
  0
LINE
  5
2EE
  8
DATA
  6
CONTINUOUS
 62
     7
 10
17.500000000363279
 20
276.52500000062048
 30
0.0
 11
14.8357827670639
 21
276.52500000062048
 31
0.0
  0
LINE
  5
2EF
  8
DATA
  6
CONTINUOUS
 62
     7
 10
2.1642172333626202
 20
276.52500000062048
 30
0.0
 11
-1.499999999636713
 21
276.52500000062048
 31
0.0
  0
LINE
  5
2F0
  8
DATA
  6
CONTINUOUS
 62
     7
 10
-1.999999999636713
 20
276.52500000062048
 30
0.0
 11
-4.2999999996367251
 21
276.52500000062048
 31
0.0
  0
LINE
  5
2F1
  8
DATA
  6
CONTINUOUS
 62
     7
 10
17.500000000363279
 20
276.52500000062048
 30
0.0
 11
17.500000000363279
 21
291.47500000062053
 31
0.0
  0
LINE
  5
2F2
  8
DATA
  6
CONTINUOUS
 62
     7
 10
-1.499999999636713
 20
276.52500000062048
 30
0.0
 11
-1.499999999636713
 21
277.66794919275162
 31
0.0
  0
LINE
  5
2F3
  8
DATA
  6
CONTINUOUS
 62
     7
 10
-1.499999999636713
 20
285.93205080788942
 30
0.0
 11
-1.499999999636713
 21
291.47500000062053
 31
0.0
  0
LINE
  5
2F4
  8
DATA
  6
CONTINUOUS
 62
     7
 10
-1.999999999636713
 20
276.52500000062048
 30
0.0
 11
-1.999999999636713
 21
277.46350832721669
 31
0.0
  0
LINE
  5
2F5
  8
DATA
  6
CONTINUOUS
 62
     7
 10
-1.999999999636713
 20
286.13649167342419
 30
0.0
 11
-1.999999999636713
 21
291.47500000062053
 31
0.0
  0
LINE
  5
2F6
  8
DATA
  6
CONTINUOUS
 62
     7
 10
-4.2999999996367251
 20
276.52500000062048
 30
0.0
 11
-4.2999999996367251
 21
277.40000000032052
 31
0.0
  0
LINE
  5
2F7
  8
DATA
  6
CONTINUOUS
 62
     7
 10
-4.2999999996367251
 20
280.0265006008014
 30
0.0
 11
-4.2999999996367251
 21
283.57349939983959
 31
0.0
  0
LINE
  5
2F8
  8
DATA
  6
CONTINUOUS
 62
     7
 10
-4.2999999996367251
 20
286.20000000032059
 30
0.0
 11
-4.2999999996367251
 21
291.47500000062053
 31
0.0
  0
LINE
  5
2F9
  8
DATA
  6
CONTINUOUS
 62
     7
 10
-29.499999999636689
 20
289.50000000032048
 30
0.0
 11
-4.2999999996367251
 21
289.50000000032048
 31
0.0
  0
LINE
  5
2FA
  8
DATA
  6
CONTINUOUS
 62
     7
 10
-21.242121596802999
 20
278.50000000032048
 30
0.0
 11
-12.557878402470489
 21
278.50000000032048
 31
0.0
  0
LINE
  5
2FB
  8
DATA
  6
CONTINUOUS
 62
     7
 10
-29.499999999636689
 20
279.9635083272168
 30
0.0
 11
-29.499999999636689
 21
283.63649167342419
 31
0.0
  0
LINE
  5
2FC
  8
DATA
  6
CONTINUOUS
 62
     7
 10
-29.499999999636689
 20
286.20000000032059
 30
0.0
 11
-29.499999999636689
 21
289.50000000032048
 31
0.0
  0
LINE
  5
2FD
  8
DATA
  6
CONTINUOUS
 62
     7
 10
-22.849999999636768
 20
237.50000000032031
 30
0.0
 11
-11.14999999963706
 21
237.50000000032031
 31
0.0
  0
ARC
  5
2FE
  8
DATA
  6
CONTINUOUS
 62
     7
 10
5.5118708975188611
 20
256.50355579900759
 30
0.0
 40
34.139871906331692
 50
184.96305592433421
 51
213.8236220990477
  0
ARC
  5
2FF
  8
DATA
  6
CONTINUOUS
 62
     7
 10
-39.511870896792281
 20
256.50355579900759
 30
0.0
 40
34.139871906331791
 50
326.17637790095228
 51
355.03694407566582
  0
LINE
  5
300
  8
DATA
  6
CONTINUOUS
 62
     7
 10
-28.499999999636689
 20
253.55000000032049
 30
0.0
 11
-28.499999999636689
 21
277.40000000032052
 31
0.0
  0
LINE
  5
301
  8
DATA
  6
CONTINUOUS
 62
     7
 10
-5.4999999996367128
 20
253.55000000032049
 30
0.0
 11
-5.4999999996367128
 21
277.40000000032052
 31
0.0
  0
CIRCLE
  5
302
  8
DATA
  6
CONTINUOUS
 62
     7
 10
-16.99999999963671
 20
262.00000000032048
 30
0.0
 40
5.75
  0
CIRCLE
  5
303
  8
DATA
  6
CONTINUOUS
 62
     7
 10
-16.99999999963671
 20
262.00000000032048
 30
0.0
 40
5.0
  0
CIRCLE
  5
304
  8
DATA
  6
CONTINUOUS
 62
     7
 10
-25.499999999636721
 20
262.00000000032048
 30
0.0
 40
2.1500000000000048
  0
LINE
  5
305
  8
DATA
  6
CONTINUOUS
 62
     7
 10
-25.499999999636721
 20
260.53000000032051
 30
0.0
 11
-25.499999999636721
 21
263.47000000032051
 31
0.0
  0
LINE
  5
306
  8
DATA
  6
CONTINUOUS
 62
     7
 10
-24.029999999636718
 20
262.00000000032048
 30
0.0
 11
-26.96999999963672
 21
262.00000000032048
 31
0.0
  0
CIRCLE
  5
307
  8
DATA
  6
CONTINUOUS
 62
     7
 10
-8.4999999996367137
 20
262.00000000032048
 30
0.0
 40
2.1500000000000048
  0
LINE
  5
308
  8
DATA
  6
CONTINUOUS
 62
     7
 10
-8.4999999996367137
 20
260.53000000032051
 30
0.0
 11
-8.4999999996367137
 21
263.47000000032051
 31
0.0
  0
LINE
  5
309
  8
DATA
  6
CONTINUOUS
 62
     7
 10
-7.0299999996367131
 20
262.00000000032048
 30
0.0
 11
-9.9699999996367126
 21
262.00000000032048
 31
0.0
  0
TEXT
  5
30A
  8
DATA
 62
     7
 10
-20.303059357325449
 20
261.23360091961331
 30
0.0
 40
2.4432617187500001
  1
open
 41
0.7
 11
-20.303059357325449
 21
263.67686263836327
 31
0.0
 73
     3
  0
LINE
  5
30B
  8
DATA
  6
CONTINUOUS
 62
     7
 10
-25.249999999636682
 20
275.05000000032049
 30
0.0
 11
-23.649999999636751
 21
275.05000000032049
 31
0.0
  0
LINE
  5
30C
  8
DATA
  6
CONTINUOUS
 62
     7
 10
-21.149999999636751
 20
275.05000000032049
 30
0.0
 11
-12.64999999963675
 21
275.05000000032049
 31
0.0
  0
LINE
  5
30D
  8
DATA
  6
CONTINUOUS
 62
     7
 10
-10.149999999636741
 20
275.05000000032049
 30
0.0
 11
-8.74999999963714
 21
275.05000000032049
 31
0.0
  0
LINE
  5
30E
  8
DATA
  6
CONTINUOUS
 62
     7
 10
-28.499999999636689
 20
267.85000000032051
 30
0.0
 11
-25.249999999636682
 21
267.85000000032051
 31
0.0
  0
LINE
  5
30F
  8
DATA
  6
CONTINUOUS
 62
     7
 10
-25.249999999636682
 20
275.05000000032049
 30
0.0
 11
-25.249999999636682
 21
267.85000000032051
 31
0.0
  0
LINE
  5
310
  8
DATA
  6
CONTINUOUS
 62
     7
 10
-5.4999999996371107
 20
267.85000000032051
 30
0.0
 11
-8.74999999963714
 21
267.85000000032051
 31
0.0
  0
LINE
  5
311
  8
DATA
  6
CONTINUOUS
 62
     7
 10
-8.74999999963714
 20
275.05000000032049
 30
0.0
 11
-8.74999999963714
 21
267.85000000032051
 31
0.0
  0
LINE
  5
312
  8
DATA
  6
CONTINUOUS
 62
     7
 10
3.983460676738956
 20
21.75024999962811
 30
0.0
 11
3.2334606767389569
 21
34.750169999628532
 31
0.0
  0
LINE
  5
313
  8
DATA
  6
CONTINUOUS
 62
     7
 10
13.469745119755141
 20
21.75024999962811
 30
0.0
 11
14.219745119755141
 21
34.750169999628532
 31
0.0
  0
LINE
  5
314
  8
DATA
  6
CONTINUOUS
 62
     7
 10
3.983460676738956
 20
21.75024999962811
 30
0.0
 11
13.469745119755141
 21
21.75024999962811
 31
0.0
  0
LINE
  5
315
  8
DATA
  6
CONTINUOUS
 62
     7
 10
3.2334606767389569
 20
34.750169999628532
 30
0.0
 11
3.2334606767389569
 21
41.250219999628499
 31
0.0
  0
LINE
  5
316
  8
DATA
  6
CONTINUOUS
 62
     7
 10
14.219745119755141
 20
34.750169999628532
 30
0.0
 11
14.219745119755141
 21
41.250219999628499
 31
0.0
  0
LINE
  5
317
  8
DATA
  6
CONTINUOUS
 62
     7
 10
3.7198551197552079
 20
41.250219999628499
 30
0.0
 11
14.219745119755141
 21
41.250219999628499
 31
0.0
  0
LINE
  5
318
  8
DATA
  6
CONTINUOUS
 62
     7
 10
3.2334606767389569
 20
41.250219999628499
 30
0.0
 11
3.2334606767389569
 21
48.749999999628727
 31
0.0
  0
LINE
  5
319
  8
DATA
  6
CONTINUOUS
 62
     7
 10
14.219745119755141
 20
48.749999999628727
 30
0.0
 11
14.219745119755141
 21
41.250219999628499
 31
0.0
  0
LINE
  5
31A
  8
DATA
  6
CONTINUOUS
 62
     7
 10
3.2334606767389569
 20
48.749999999628727
 30
0.0
 11
14.219745119755141
 21
48.749999999628727
 31
0.0
  0
LINE
  5
31B
  8
DATA
  6
CONTINUOUS
 62
     7
 10
3.7198551197552079
 20
41.350139999628617
 30
0.0
 11
14.219745119755141
 21
41.350139999628617
 31
0.0
  0
LINE
  5
31C
  8
DATA
  6
CONTINUOUS
 62
     7
 10
8.0334606767389118
 20
34.750169999628532
 30
0.0
 11
8.4834406767390078
 21
28.75028999962845
 31
0.0
  0
LINE
  5
31D
  8
DATA
  6
CONTINUOUS
 62
     7
 10
8.9333606767390297
 20
34.750169999628532
 30
0.0
 11
8.4834406767390078
 21
28.75028999962845
 31
0.0
  0
LINE
  5
31E
  8
DATA
  6
CONTINUOUS
 62
     7
 10
8.9333606767390297
 20
34.750169999628532
 30
0.0
 11
8.0334606767389118
 21
34.750169999628532
 31
0.0
  0
LINE
  5
31F
  8
DATA
  6
CONTINUOUS
 62
     7
 10
4.0334606767390246
 20
34.750169999628532
 30
0.0
 11
4.4834606767389564
 21
28.75028999962845
 31
0.0
  0
LINE
  5
320
  8
DATA
  6
CONTINUOUS
 62
     7
 10
4.933360676739027
 20
34.750169999628532
 30
0.0
 11
4.4834606767389564
 21
28.75028999962845
 31
0.0
  0
LINE
  5
321
  8
DATA
  6
CONTINUOUS
 62
     7
 10
4.0334606767390246
 20
34.750169999628532
 30
0.0
 11
4.933360676739027
 21
34.750169999628532
 31
0.0
  0
LINE
  5
322
  8
DATA
  6
CONTINUOUS
 62
     7
 10
6.0334606767390246
 20
34.750169999628532
 30
0.0
 11
6.483460676739071
 21
28.75028999962845
 31
0.0
  0
LINE
  5
323
  8
DATA
  6
CONTINUOUS
 62
     7
 10
6.933360676739027
 20
34.750169999628532
 30
0.0
 11
6.483460676739071
 21
28.75028999962845
 31
0.0
  0
LINE
  5
324
  8
DATA
  6
CONTINUOUS
 62
     7
 10
6.0334606767390246
 20
34.750169999628532
 30
0.0
 11
6.933360676739027
 21
34.750169999628532
 31
0.0
  0
LINE
  5
325
  8
DATA
  6
CONTINUOUS
 62
     7
 10
10.03346067673891
 20
34.750169999628532
 30
0.0
 11
10.48335067673889
 21
28.75028999962845
 31
0.0
  0
LINE
  5
326
  8
DATA
  6
CONTINUOUS
 62
     7
 10
10.933360676738911
 20
34.750169999628532
 30
0.0
 11
10.48335067673889
 21
28.75028999962845
 31
0.0
  0
LINE
  5
327
  8
DATA
  6
CONTINUOUS
 62
     7
 10
10.03346067673891
 20
34.750169999628532
 30
0.0
 11
10.933360676738911
 21
34.750169999628532
 31
0.0
  0
LINE
  5
328
  8
DATA
  6
CONTINUOUS
 62
     7
 10
12.03346067673891
 20
34.750169999628532
 30
0.0
 11
12.48335067673889
 21
28.75028999962845
 31
0.0
  0
LINE
  5
329
  8
DATA
  6
CONTINUOUS
 62
     7
 10
12.933340676738959
 20
34.750169999628532
 30
0.0
 11
12.48335067673889
 21
28.75028999962845
 31
0.0
  0
LINE
  5
32A
  8
DATA
  6
CONTINUOUS
 62
     7
 10
12.03346067673891
 20
34.750169999628532
 30
0.0
 11
12.933340676738959
 21
34.750169999628532
 31
0.0
  0
LINE
  5
32B
  8
DATA
  6
CONTINUOUS
 62
     7
 10
6.4834056767389834
 20
4.7502499996278971
 30
0.0
 11
10.483405676738981
 21
4.7502499996278971
 31
0.0
  0
LINE
  5
32C
  8
DATA
  6
CONTINUOUS
 62
     7
 10
5.9834056767389834
 20
21.75024999962811
 30
0.0
 11
6.4834056767389834
 21
4.7502499996278971
 31
0.0
  0
LINE
  5
32D
  8
DATA
  6
CONTINUOUS
 62
     7
 10
10.983405676738981
 20
21.75024999962811
 30
0.0
 11
10.483405676738981
 21
4.7502499996278971
 31
0.0
  0
LINE
  5
32E
  8
DATA
  6
CONTINUOUS
 62
     7
 10
9.4834056767389825
 20
4.7502499996278971
 30
0.0
 11
9.4834056767389825
 21
-85.076978049172951
 31
0.0
  0
LINE
  5
32F
  8
DATA
  6
CONTINUOUS
 62
     7
 10
7.4834056767389816
 20
4.7502499996278971
 30
0.0
 11
7.4834056767389816
 21
-82.544706064504524
 31
0.0
  0
ARC
  5
330
  8
DATA
  6
CONTINUOUS
 62
     7
 10
59.48340567673911
 20
-82.113317642399835
 30
0.0
 40
50.000000000000142
 50
185.936700181443
 51
270.0
  0
ARC
  5
331
  8
DATA
  6
CONTINUOUS
 62
     7
 10
57.483405676739103
 20
-84.113317642399849
 30
0.0
 40
50.000000000000099
 50
180.49622888199451
 51
270.0
  0
ARC
  5
332
  8
DATA
  6
CONTINUOUS
 62
     7
 10
12.199752002252749
 20
-83.8488941557884
 30
0.0
 40
4.2188935733035331
 50
207.26982744309899
 51
332.7301725569011
  0
ARC
  5
333
  8
DATA
  6
CONTINUOUS
 62
     7
 10
4.699752002252751
 20
-87.714932429195386
 30
0.0
 40
4.2188935733035331
 50
27.269827443099
 51
152.73017255690101
  0
ARC
  5
334
  8
DATA
  6
CONTINUOUS
 62
     7
 10
12.199752002252749
 20
-81.8488941557884
 30
0.0
 40
4.2188935733035331
 50
207.26982744309899
 51
332.7301725569011
  0
ARC
  5
335
  8
DATA
  6
CONTINUOUS
 62
     7
 10
4.699752002252751
 20
-85.714932429195343
 30
0.0
 40
4.2188935733035331
 50
27.269827443099
 51
152.73017255690101
  0
LINE
  5
336
  8
DATA
  6
CONTINUOUS
 62
     7
 10
59.48340567673911
 20
-132.11331764239981
 30
0.0
 11
106.98884219784409
 21
-132.11331764239981
 31
0.0
  0
LINE
  5
337
  8
DATA
  6
CONTINUOUS
 62
     7
 10
57.483405676739103
 20
-134.11331764239981
 30
0.0
 11
106.98884219784409
 21
-134.11331764239981
 31
0.0
  0
LINE
  5
338
  8
DATA
  6
CONTINUOUS
 62
     7
 10
123.98884219784451
 20
-128.7101479406596
 30
0.0
 11
136.98876219784489
 21
-127.9601479406595
 31
0.0
  0
LINE
  5
339
  8
DATA
  6
CONTINUOUS
 62
     7
 10
123.98884219784451
 20
-138.1964323836757
 30
0.0
 11
136.98876219784489
 21
-138.9464323836757
 31
0.0
  0
LINE
  5
33A
  8
DATA
  6
CONTINUOUS
 62
     7
 10
123.98884219784451
 20
-128.7101479406596
 30
0.0
 11
123.98884219784451
 21
-138.1964323836757
 31
0.0
  0
LINE
  5
33B
  8
DATA
  6
CONTINUOUS
 62
     7
 10
136.98876219784489
 20
-127.9601479406595
 30
0.0
 11
143.48881219784499
 21
-127.9601479406595
 31
0.0
  0
LINE
  5
33C
  8
DATA
  6
CONTINUOUS
 62
     7
 10
136.98876219784489
 20
-138.9464323836757
 30
0.0
 11
143.48881219784499
 21
-138.9464323836757
 31
0.0
  0
LINE
  5
33D
  8
DATA
  6
CONTINUOUS
 62
     7
 10
143.48881219784499
 20
-127.9601479406595
 30
0.0
 11
143.48881219784499
 21
-138.9464323836757
 31
0.0
  0
LINE
  5
33E
  8
DATA
  6
CONTINUOUS
 62
     7
 10
143.48881219784499
 20
-127.9601479406595
 30
0.0
 11
150.98859219784509
 21
-127.9601479406595
 31
0.0
  0
LINE
  5
33F
  8
DATA
  6
CONTINUOUS
 62
     7
 10
150.98859219784509
 20
-138.9464323836757
 30
0.0
 11
143.48881219784499
 21
-138.9464323836757
 31
0.0
  0
LINE
  5
340
  8
DATA
  6
CONTINUOUS
 62
     7
 10
150.98859219784509
 20
-127.9601479406595
 30
0.0
 11
150.98859219784509
 21
-138.9464323836757
 31
0.0
  0
LINE
  5
341
  8
DATA
  6
CONTINUOUS
 62
     7
 10
150.98859219784509
 20
-137.2100379406595
 30
0.0
 11
159.48857219784509
 21
-137.2100379406595
 31
0.0
  0
LINE
  5
342
  8
DATA
  6
CONTINUOUS
 62
     7
 10
159.48857219784509
 20
-137.2100379406595
 30
0.0
 11
159.48857219784509
 21
-129.21014794065951
 31
0.0
  0
LINE
  5
343
  8
DATA
  6
CONTINUOUS
 62
     7
 10
143.5887321978451
 20
-127.9601479406595
 30
0.0
 11
143.5887321978451
 21
-138.9464323836757
 31
0.0
  0
LINE
  5
344
  8
DATA
  6
CONTINUOUS
 62
     7
 10
158.98857219784509
 20
-128.17002794065971
 30
0.0
 11
158.98857219784509
 21
-129.21014794065951
 31
0.0
  0
LINE
  5
345
  8
DATA
  6
CONTINUOUS
 62
     7
 10
158.78869219784519
 20
-129.21014794065951
 30
0.0
 11
158.78869219784519
 21
-128.40995794065961
 31
0.0
  0
POLYLINE
  5
346
  8
DATA
  6
CONTINUOUS
 62
     7
 66
     1
 10
0.0
 20
0.0
 30
0.0
 70
   129
  0
VERTEX
  5
4D4
  8
DATA
  6
CONTINUOUS
 62
     7
 10
154.46360219784509
 20
-128.9990579406597
 30
0.0
  0
VERTEX
  5
4D5
  8
DATA
  6
CONTINUOUS
 62
     7
 10
154.46496494463901
 20
-128.99947547200981
 30
0.0
  0
VERTEX
  5
4D6
  8
DATA
  6
CONTINUOUS
 62
     7
 10
154.46496494463969
 20
-128.99947547201009
 30
0.0
 42
0.0515215183459249
  0
VERTEX
  5
4D7
  8
DATA
  6
CONTINUOUS
 62
     7
 10
154.4887021978451
 20
-129.00414794065961
 30
0.0
  0
SEQEND
  5
4D8
  8
DATA
  6
CONTINUOUS
 62
     7
  0
LINE
  5
34C
  8
DATA
  6
CONTINUOUS
 62
     7
 10
158.78869219784519
 20
-128.40995794065961
 30
0.0
 11
154.51268219784521
 21
-129.2061179406596
 31
0.0
  0
POLYLINE
  5
34D
  8
DATA
  6
CONTINUOUS
 62
     7
 66
     1
 10
0.0
 20
0.0
 30
0.0
 70
   129
  0
VERTEX
  5
4D9
  8
DATA
  6
CONTINUOUS
 62
     7
 10
154.46360219784509
 20
-128.9990579406597
 30
0.0
  0
VERTEX
  5
4DA
  8
DATA
  6
CONTINUOUS
 62
     7
 10
154.46496494463901
 20
-128.99947547200981
 30
0.0
  0
VERTEX
  5
4DB
  8
DATA
  6
CONTINUOUS
 62
     7
 10
154.46496494463969
 20
-128.99947547201009
 30
0.0
 42
0.0515215183459249
  0
VERTEX
  5
4DC
  8
DATA
  6
CONTINUOUS
 62
     7
 10
154.4887021978451
 20
-129.00414794065961
 30
0.0
  0
SEQEND
  5
4DD
  8
DATA
  6
CONTINUOUS
 62
     7
  0
LINE
  5
353
  8
DATA
  6
CONTINUOUS
 62
     7
 10
151.73669219784509
 20
-128.63304794065959
 30
0.0
 11
151.58959219784509
 21
-128.49304794065961
 31
0.0
  0
LINE
  5
354
  8
DATA
  6
CONTINUOUS
 62
     7
 10
151.987302197845
 20
-128.20024794065961
 30
0.0
 11
151.58959219784509
 21
-128.49304794065961
 31
0.0
  0
LINE
  5
355
  8
DATA
  6
CONTINUOUS
 62
     7
 10
152.02488219784519
 20
-128.4217579406596
 30
0.0
 11
151.73669219784509
 21
-128.63304794065959
 31
0.0
  0
LINE
  5
356
  8
DATA
  6
CONTINUOUS
 62
     7
 10
152.02488219784519
 20
-128.4217579406596
 30
0.0
 11
154.46468219784509
 21
-129.2031179406595
 31
0.0
  0
LINE
  5
357
  8
DATA
  6
CONTINUOUS
 62
     7
 10
154.46360219784509
 20
-128.9990579406597
 30
0.0
 11
151.987302197845
 21
-128.20024794065961
 31
0.0
  0
LINE
  5
358
  8
DATA
  6
CONTINUOUS
 62
     7
 10
154.51268219784521
 20
-129.00204794065959
 30
0.0
 11
158.98857219784509
 21
-128.17002794065971
 31
0.0
  0
POLYLINE
  5
359
  8
DATA
  6
CONTINUOUS
 62
     7
 66
     1
 10
0.0
 20
0.0
 30
0.0
 70
   129
  0
VERTEX
  5
4DE
  8
DATA
  6
CONTINUOUS
 62
     7
 10
154.46360219784509
 20
-128.9990579406597
 30
0.0
  0
VERTEX
  5
4DF
  8
DATA
  6
CONTINUOUS
 62
     7
 10
154.46496494463901
 20
-128.99947547200981
 30
0.0
  0
VERTEX
  5
4E0
  8
DATA
  6
CONTINUOUS
 62
     7
 10
154.46496494463969
 20
-128.99947547201009
 30
0.0
 42
0.0515215183459249
  0
VERTEX
  5
4E1
  8
DATA
  6
CONTINUOUS
 62
     7
 10
154.4887021978451
 20
-129.00414794065961
 30
0.0
  0
SEQEND
  5
4E2
  8
DATA
  6
CONTINUOUS
 62
     7
  0
LINE
  5
35F
  8
DATA
  6
CONTINUOUS
 62
     7
 10
151.4886121978451
 20
-130.71014794065971
 30
0.0
 11
153.98866219784509
 21
-130.71014794065971
 31
0.0
  0
LINE
  5
360
  8
DATA
  6
CONTINUOUS
 62
     7
 10
151.4886121978451
 20
-130.71014794065971
 30
0.0
 11
151.4886121978451
 21
-129.21014794065951
 31
0.0
  0
LINE
  5
361
  8
DATA
  6
CONTINUOUS
 62
     7
 10
153.98866219784509
 20
-130.71014794065971
 30
0.0
 11
153.98866219784509
 21
-129.21014794065951
 31
0.0
  0
LINE
  5
362
  8
DATA
  6
CONTINUOUS
 62
     7
 10
151.4886121978451
 20
-129.21014794065951
 30
0.0
 11
150.98859219784509
 21
-129.21014794065951
 31
0.0
  0
LINE
  5
363
  8
DATA
  6
CONTINUOUS
 62
     7
 10
153.98866219784509
 20
-129.21014794065951
 30
0.0
 11
159.48857219784509
 21
-129.21014794065951
 31
0.0
  0
LINE
  5
364
  8
DATA
  6
CONTINUOUS
 62
     7
 10
153.97359219784511
 20
-129.21913794065961
 30
0.0
 11
152.32070219784509
 21
-129.21913794065961
 31
0.0
  0
LINE
  5
365
  8
DATA
  6
CONTINUOUS
 62
     7
 10
152.32070219784509
 20
-129.21913794065961
 30
0.0
 11
152.32070219784509
 21
-128.8671379406596
 31
0.0
  0
LINE
  5
366
  8
DATA
  6
CONTINUOUS
 62
     7
 10
152.32070219784509
 20
-128.8671379406596
 30
0.0
 11
153.98866219784509
 21
-129.21014794065951
 31
0.0
  0
LINE
  5
367
  8
DATA
  6
CONTINUOUS
 62
     7
 10
136.98876219784489
 20
-132.76014794065949
 30
0.0
 11
130.9888821978449
 21
-133.21012794065959
 31
0.0
  0
LINE
  5
368
  8
DATA
  6
CONTINUOUS
 62
     7
 10
136.98876219784489
 20
-133.66004794065961
 30
0.0
 11
130.9888821978449
 21
-133.21012794065959
 31
0.0
  0
LINE
  5
369
  8
DATA
  6
CONTINUOUS
 62
     7
 10
136.98876219784489
 20
-133.66004794065961
 30
0.0
 11
136.98876219784489
 21
-132.76014794065949
 31
0.0
  0
LINE
  5
36A
  8
DATA
  6
CONTINUOUS
 62
     7
 10
136.98876219784489
 20
-128.76014794065961
 30
0.0
 11
130.9888821978449
 21
-129.21014794065951
 31
0.0
  0
LINE
  5
36B
  8
DATA
  6
CONTINUOUS
 62
     7
 10
136.98876219784489
 20
-129.66004794065961
 30
0.0
 11
130.9888821978449
 21
-129.21014794065951
 31
0.0
  0
LINE
  5
36C
  8
DATA
  6
CONTINUOUS
 62
     7
 10
136.98876219784489
 20
-128.76014794065961
 30
0.0
 11
136.98876219784489
 21
-129.66004794065961
 31
0.0
  0
LINE
  5
36D
  8
DATA
  6
CONTINUOUS
 62
     7
 10
136.98876219784489
 20
-130.76014794065961
 30
0.0
 11
130.9888821978449
 21
-131.21014794065971
 31
0.0
  0
LINE
  5
36E
  8
DATA
  6
CONTINUOUS
 62
     7
 10
136.98876219784489
 20
-131.66004794065961
 30
0.0
 11
130.9888821978449
 21
-131.21014794065971
 31
0.0
  0
LINE
  5
36F
  8
DATA
  6
CONTINUOUS
 62
     7
 10
136.98876219784489
 20
-130.76014794065961
 30
0.0
 11
136.98876219784489
 21
-131.66004794065961
 31
0.0
  0
LINE
  5
370
  8
DATA
  6
CONTINUOUS
 62
     7
 10
136.98876219784489
 20
-134.76014794065949
 30
0.0
 11
130.9888821978449
 21
-135.2100379406595
 31
0.0
  0
LINE
  5
371
  8
DATA
  6
CONTINUOUS
 62
     7
 10
136.98876219784489
 20
-135.6600479406595
 30
0.0
 11
130.9888821978449
 21
-135.2100379406595
 31
0.0
  0
LINE
  5
372
  8
DATA
  6
CONTINUOUS
 62
     7
 10
136.98876219784489
 20
-134.76014794065949
 30
0.0
 11
136.98876219784489
 21
-135.6600479406595
 31
0.0
  0
LINE
  5
373
  8
DATA
  6
CONTINUOUS
 62
     7
 10
136.98876219784489
 20
-136.76014794065949
 30
0.0
 11
130.9888821978449
 21
-137.2100379406595
 31
0.0
  0
LINE
  5
374
  8
DATA
  6
CONTINUOUS
 62
     7
 10
136.98876219784489
 20
-137.66002794065949
 30
0.0
 11
130.9888821978449
 21
-137.2100379406595
 31
0.0
  0
LINE
  5
375
  8
DATA
  6
CONTINUOUS
 62
     7
 10
136.98876219784489
 20
-136.76014794065949
 30
0.0
 11
136.98876219784489
 21
-137.66002794065949
 31
0.0
  0
CIRCLE
  5
376
  8
DATA
  6
CONTINUOUS
 62
     7
 10
172.90680000010821
 20
-132.89550009451219
 30
0.0
 40
0.6279809320000709
  0
CIRCLE
  5
377
  8
DATA
  6
CONTINUOUS
 62
     7
 10
177.09320000010811
 20
-132.89550009451219
 30
0.0
 40
0.6278867380000861
  0
CIRCLE
  5
378
  8
DATA
  6
CONTINUOUS
 62
     7
 10
175.00000000010809
 20
-135.55441575420909
 30
0.0
 40
0.6278553400000533
  0
LINE
  5
379
  8
DATA
  6
CONTINUOUS
 62
     7
 10
173.9534000001081
 20
-129.13887288020919
 30
0.0
 11
173.9534000001081
 21
-129.95090888820911
 31
0.0
  0
LINE
  5
37A
  8
DATA
  6
CONTINUOUS
 62
     7
 10
176.04660000010821
 20
-129.13887288020919
 30
0.0
 11
176.04660000010821
 21
-129.95090888820911
 31
0.0
  0
LINE
  5
37B
  8
DATA
  6
CONTINUOUS
 62
     7
 10
172.7330539341082
 20
-130.5830657542092
 30
0.0
 11
177.265763408108
 21
-130.5830657542092
 31
0.0
  0
ARC
  5
37C
  8
DATA
  6
CONTINUOUS
 62
     7
 10
175.00000000010809
 20
-133.46121575420909
 30
0.0
 40
3.6630077605004869
 50
106.6019797549917
 51
73.398020245008226
  0
ARC
  5
37D
  8
DATA
  6
CONTINUOUS
 62
     7
 10
175.00000000010809
 20
-133.46121575420909
 30
0.0
 40
4.4472485291939456
 50
103.61146039991731
 51
76.401326097578732
  0
LINE
  5
37E
  8
DATA
  6
CONTINUOUS
 62
     7
 10
173.25113140010819
 20
-130.2429312202091
 30
0.0
 11
176.7477173401081
 21
-130.2429312202091
 31
0.0
  0
LINE
  5
37F
  8
DATA
  6
CONTINUOUS
 62
     7
 10
174.05795534010809
 20
-128.48986575420909
 30
0.0
 11
175.94180394210821
 21
-128.48986575420909
 31
0.0
  0
LINE
  5
380
  8
DATA
  6
CONTINUOUS
 62
     7
 10
175.94180394210821
 20
-128.48986575420909
 30
0.0
 11
175.94180394210821
 21
-130.12372348020909
 31
0.0
  0
LINE
  5
381
  8
DATA
  6
CONTINUOUS
 62
     7
 10
175.94180394210821
 20
-130.12372348020909
 30
0.0
 11
174.05795534010809
 21
-130.12372348020909
 31
0.0
  0
LINE
  5
382
  8
DATA
  6
CONTINUOUS
 62
     7
 10
174.05795534010809
 20
-130.12372348020909
 30
0.0
 11
174.05795534010809
 21
-128.48986575420909
 31
0.0
  0
CIRCLE
  5
383
  8
DATA
  6
CONTINUOUS
 62
     7
 10
175.00000000010809
 20
-133.46121575420909
 30
0.0
 40
5.494555805999993
  0
LINE
  5
384
  8
DATA
  6
CONTINUOUS
 62
     7
 10
173.4301000001081
 20
-128.19588628020909
 30
0.0
 11
173.4301000001081
 21
-127.36894668820899
 31
0.0
  0
LINE
  5
385
  8
DATA
  6
CONTINUOUS
 62
     7
 10
176.56990000010811
 20
-127.36894668820899
 30
0.0
 11
176.56990000010811
 21
-128.19588628020909
 31
0.0
  0
ARC
  5
386
  8
DATA
  6
CONTINUOUS
 62
     7
 10
175.00000000010809
 20
-128.15075688820909
 30
0.0
 40
1.7537996461466681
 50
26.47330461096054
 51
153.52669538904109
  0
CIRCLE
  5
387
  8
DATA
  6
CONTINUOUS
 62
     7
 10
175.00000000010809
 20
-133.46121575420909
 30
0.0
 40
5.494555805999993
  0
ARC
  5
388
  8
DATA
  6
CONTINUOUS
 62
     7
 10
147.456682197845
 20
-128.13608794065959
 30
0.0
 40
1.675689130029778
 50
26.473303386679891
 51
153.52700145607321
  0
LINE
  5
389
  8
DATA
  6
CONTINUOUS
 62
     7
 10
145.95667219784491
 20
-127.3890979406597
 30
0.0
 11
145.95667219784491
 21
-127.9601479406595
 31
0.0
  0
LINE
  5
38A
  8
DATA
  6
CONTINUOUS
 62
     7
 10
148.95666219784499
 20
-127.3890979406597
 30
0.0
 11
148.95666219784499
 21
-127.9601479406595
 31
0.0
  0
LINE
  5
38B
  8
DATA
  6
CONTINUOUS
 62
     7
 10
106.98884219784409
 20
-131.21009294065959
 30
0.0
 11
106.98884219784409
 21
-135.21009294065959
 31
0.0
  0
LINE
  5
38C
  8
DATA
  6
CONTINUOUS
 62
     7
 10
123.98884219784451
 20
-130.71009294065959
 30
0.0
 11
106.98884219784409
 21
-131.21009294065959
 31
0.0
  0
LINE
  5
38D
  8
DATA
  6
CONTINUOUS
 62
     7
 10
123.98884219784451
 20
-135.71009294065959
 30
0.0
 11
106.98884219784409
 21
-135.21009294065959
 31
0.0
  0
LINE
  5
38E
  8
DATA
  6
CONTINUOUS
 62
     7
 10
210.2965873730848
 20
21.75024999962811
 30
0.0
 11
209.5465873730848
 21
34.750169999628532
 31
0.0
  0
LINE
  5
38F
  8
DATA
  6
CONTINUOUS
 62
     7
 10
219.78287181610071
 20
21.75024999962811
 30
0.0
 11
220.5328718161006
 21
34.750169999628532
 31
0.0
  0
LINE
  5
390
  8
DATA
  6
CONTINUOUS
 62
     7
 10
210.2965873730848
 20
21.75024999962811
 30
0.0
 11
219.78287181610071
 21
21.75024999962811
 31
0.0
  0
LINE
  5
391
  8
DATA
  6
CONTINUOUS
 62
     7
 10
209.5465873730848
 20
34.750169999628532
 30
0.0
 11
209.5465873730848
 21
41.250219999628499
 31
0.0
  0
LINE
  5
392
  8
DATA
  6
CONTINUOUS
 62
     7
 10
220.5328718161006
 20
34.750169999628532
 30
0.0
 11
220.5328718161006
 21
41.250219999628499
 31
0.0
  0
LINE
  5
393
  8
DATA
  6
CONTINUOUS
 62
     7
 10
209.5465873730848
 20
41.250219999628499
 30
0.0
 11
220.5328718161006
 21
41.250219999628499
 31
0.0
  0
LINE
  5
394
  8
DATA
  6
CONTINUOUS
 62
     7
 10
209.5465873730848
 20
41.250219999628499
 30
0.0
 11
209.5465873730848
 21
48.749999999628727
 31
0.0
  0
LINE
  5
395
  8
DATA
  6
CONTINUOUS
 62
     7
 10
220.5328718161006
 20
48.749999999628727
 30
0.0
 11
220.5328718161006
 21
41.250219999628499
 31
0.0
  0
LINE
  5
396
  8
DATA
  6
CONTINUOUS
 62
     7
 10
209.5465873730848
 20
41.350139999628617
 30
0.0
 11
220.5328718161006
 21
41.350139999628617
 31
0.0
  0
LINE
  5
397
  8
DATA
  6
CONTINUOUS
 62
     7
 10
214.34658737308479
 20
34.750169999628532
 30
0.0
 11
214.7965673730848
 21
28.75028999962845
 31
0.0
  0
LINE
  5
398
  8
DATA
  6
CONTINUOUS
 62
     7
 10
215.24648737308479
 20
34.750169999628532
 30
0.0
 11
214.7965673730848
 21
28.75028999962845
 31
0.0
  0
LINE
  5
399
  8
DATA
  6
CONTINUOUS
 62
     7
 10
215.24648737308479
 20
34.750169999628532
 30
0.0
 11
214.34658737308479
 21
34.750169999628532
 31
0.0
  0
LINE
  5
39A
  8
DATA
  6
CONTINUOUS
 62
     7
 10
210.34658737308479
 20
34.750169999628532
 30
0.0
 11
210.7965873730848
 21
28.75028999962845
 31
0.0
  0
LINE
  5
39B
  8
DATA
  6
CONTINUOUS
 62
     7
 10
211.24648737308479
 20
34.750169999628532
 30
0.0
 11
210.7965873730848
 21
28.75028999962845
 31
0.0
  0
LINE
  5
39C
  8
DATA
  6
CONTINUOUS
 62
     7
 10
210.34658737308479
 20
34.750169999628532
 30
0.0
 11
211.24648737308479
 21
34.750169999628532
 31
0.0
  0
LINE
  5
39D
  8
DATA
  6
CONTINUOUS
 62
     7
 10
212.34658737308479
 20
34.750169999628532
 30
0.0
 11
212.79658737308489
 21
28.75028999962845
 31
0.0
  0
LINE
  5
39E
  8
DATA
  6
CONTINUOUS
 62
     7
 10
213.24648737308479
 20
34.750169999628532
 30
0.0
 11
212.79658737308489
 21
28.75028999962845
 31
0.0
  0
LINE
  5
39F
  8
DATA
  6
CONTINUOUS
 62
     7
 10
212.34658737308479
 20
34.750169999628532
 30
0.0
 11
213.24648737308479
 21
34.750169999628532
 31
0.0
  0
LINE
  5
3A0
  8
DATA
  6
CONTINUOUS
 62
     7
 10
216.3465873730847
 20
34.750169999628532
 30
0.0
 11
216.7964773730846
 21
28.75028999962845
 31
0.0
  0
LINE
  5
3A1
  8
DATA
  6
CONTINUOUS
 62
     7
 10
217.24648737308459
 20
34.750169999628532
 30
0.0
 11
216.7964773730846
 21
28.75028999962845
 31
0.0
  0
LINE
  5
3A2
  8
DATA
  6
CONTINUOUS
 62
     7
 10
216.3465873730847
 20
34.750169999628532
 30
0.0
 11
217.24648737308459
 21
34.750169999628532
 31
0.0
  0
LINE
  5
3A3
  8
DATA
  6
CONTINUOUS
 62
     7
 10
218.3465873730845
 20
34.750169999628532
 30
0.0
 11
218.79647737308451
 21
28.75028999962845
 31
0.0
  0
LINE
  5
3A4
  8
DATA
  6
CONTINUOUS
 62
     7
 10
219.2464673730845
 20
34.750169999628532
 30
0.0
 11
218.79647737308451
 21
28.75028999962845
 31
0.0
  0
LINE
  5
3A5
  8
DATA
  6
CONTINUOUS
 62
     7
 10
218.3465873730845
 20
34.750169999628532
 30
0.0
 11
219.2464673730845
 21
34.750169999628532
 31
0.0
  0
LINE
  5
3A6
  8
DATA
  6
CONTINUOUS
 62
     7
 10
212.7965323730848
 20
4.7502499996278971
 30
0.0
 11
216.79653237308469
 21
4.7502499996278971
 31
0.0
  0
LINE
  5
3A7
  8
DATA
  6
CONTINUOUS
 62
     7
 10
212.2965323730848
 20
21.75024999962811
 30
0.0
 11
212.7965323730848
 21
4.7502499996278971
 31
0.0
  0
LINE
  5
3A8
  8
DATA
  6
CONTINUOUS
 62
     7
 10
217.29653237308469
 20
21.75024999962811
 30
0.0
 11
216.79653237308469
 21
4.7502499996278971
 31
0.0
  0
LINE
  5
3A9
  8
DATA
  6
CONTINUOUS
 62
     7
 10
215.7965323730848
 20
4.7502499996278971
 30
0.0
 11
215.7965323730848
 21
-12.5
 31
0.0
  0
LINE
  5
3AA
  8
DATA
  6
CONTINUOUS
 62
     7
 10
213.7965323730848
 20
4.7502499996278971
 30
0.0
 11
213.7965323730848
 21
-12.5
 31
0.0
  0
LINE
  5
3AB
  8
DATA
  6
CONTINUOUS
 62
     7
 10
-31.499999999636959
 20
286.20000000032059
 30
0.0
 11
-2.4999999996369549
 21
286.20000000032059
 31
0.0
  0
LINE
  5
3AC
  8
DATA
  6
CONTINUOUS
 62
     7
 10
-33.499999999636962
 20
279.40000000032052
 30
0.0
 11
-33.499999999636962
 21
284.20000000032047
 31
0.0
  0
LINE
  5
3AD
  8
DATA
  6
CONTINUOUS
 62
     7
 10
-0.4999999996369553
 20
279.40000000032052
 30
0.0
 11
-0.4999999996369553
 21
284.20000000032047
 31
0.0
  0
LINE
  5
3AE
  8
DATA
  6
CONTINUOUS
 62
     7
 10
-23.649999999636751
 20
271.50000000032048
 30
0.0
 11
-23.649999999636751
 21
275.4000000003204
 31
0.0
  0
LINE
  5
3AF
  8
DATA
  6
CONTINUOUS
 62
     7
 10
-21.149999999636751
 20
271.50000000032048
 30
0.0
 11
-21.149999999636751
 21
277.9000000003204
 31
0.0
  0
LINE
  5
3B0
  8
DATA
  6
CONTINUOUS
 62
     7
 10
-12.64999999963675
 20
271.50000000032048
 30
0.0
 11
-12.64999999963675
 21
277.9000000003204
 31
0.0
  0
LINE
  5
3B1
  8
DATA
  6
CONTINUOUS
 62
     7
 10
-10.149999999636741
 20
271.50000000032048
 30
0.0
 11
-10.149999999636741
 21
275.4000000003204
 31
0.0
  0
LINE
  5
3B2
  8
DATA
  6
CONTINUOUS
 62
     7
 10
-28.999999999636959
 20
283.70000000032047
 30
0.0
 11
-4.9999999996369553
 21
283.70000000032047
 31
0.0
  0
LINE
  5
3B3
  8
DATA
  6
CONTINUOUS
 62
     7
 10
-28.999999999636959
 20
279.9000000003204
 30
0.0
 11
-23.149999999636751
 21
279.9000000003204
 31
0.0
  0
LINE
  5
3B4
  8
DATA
  6
CONTINUOUS
 62
     7
 10
-10.64999999963675
 20
279.9000000003204
 30
0.0
 11
-4.9999999996369553
 21
279.9000000003204
 31
0.0
  0
LINE
  5
3B5
  8
DATA
  6
CONTINUOUS
 62
     7
 10
-31.499999999636959
 20
277.40000000032052
 30
0.0
 11
-25.649999999636751
 21
277.40000000032052
 31
0.0
  0
LINE
  5
3B6
  8
DATA
  6
CONTINUOUS
 62
     7
 10
-8.1499999996367496
 20
277.40000000032052
 30
0.0
 11
-2.4999999996369549
 21
277.40000000032052
 31
0.0
  0
ARC
  5
3B7
  8
DATA
  6
CONTINUOUS
 62
     7
 10
-31.499999999636959
 20
284.20000000032047
 30
0.0
 40
2.0
 50
90.0
 51
180.0
  0
ARC
  5
3B8
  8
DATA
  6
CONTINUOUS
 62
     7
 10
-28.999999999636959
 20
281.70000000032047
 30
0.0
 40
2.0
 50
90.0
 51
180.0
  0
ARC
  5
3B9
  8
DATA
  6
CONTINUOUS
 62
     7
 10
-28.999999999636959
 20
281.90000000032052
 30
0.0
 40
2.0
 50
180.0
 51
270.0
  0
ARC
  5
3BA
  8
DATA
  6
CONTINUOUS
 62
     7
 10
-31.499999999636959
 20
279.40000000032052
 30
0.0
 40
2.0
 50
180.0
 51
270.0
  0
ARC
  5
3BB
  8
DATA
  6
CONTINUOUS
 62
     7
 10
-25.649999999636751
 20
275.4000000003204
 30
0.0
 40
2.0
 50
0.0
 51
90.0
  0
ARC
  5
3BC
  8
DATA
  6
CONTINUOUS
 62
     7
 10
-23.149999999636751
 20
277.9000000003204
 30
0.0
 40
2.0
 50
0.0
 51
90.0
  0
ARC
  5
3BD
  8
DATA
  6
CONTINUOUS
 62
     7
 10
-4.9999999996369553
 20
281.70000000032047
 30
0.0
 40
2.0
 50
0.0
 51
90.0
  0
ARC
  5
3BE
  8
DATA
  6
CONTINUOUS
 62
     7
 10
-2.4999999996369549
 20
284.20000000032047
 30
0.0
 40
2.0
 50
0.0
 51
90.0
  0
ARC
  5
3BF
  8
DATA
  6
CONTINUOUS
 62
     7
 10
-2.4999999996369549
 20
279.40000000032052
 30
0.0
 40
2.0
 50
270.0
 51
0.0
  0
ARC
  5
3C0
  8
DATA
  6
CONTINUOUS
 62
     7
 10
-4.9999999996369553
 20
281.90000000032052
 30
0.0
 40
2.0
 50
270.0
 51
0.0
  0
ARC
  5
3C1
  8
DATA
  6
CONTINUOUS
 62
     7
 10
-10.64999999963675
 20
277.9000000003204
 30
0.0
 40
2.0
 50
90.0
 51
180.0
  0
ARC
  5
3C2
  8
DATA
  6
CONTINUOUS
 62
     7
 10
-8.1499999996367496
 20
275.4000000003204
 30
0.0
 40
2.0
 50
90.0
 51
180.0
  0
ARC
  5
3C3
  8
DATA
  6
CONTINUOUS
 62
     7
 10
-22.399999999636758
 20
271.50000000032048
 30
0.0
 40
1.2499999999999849
 50
180.0
 51
0.0
  0
ARC
  5
3C4
  8
DATA
  6
CONTINUOUS
 62
     7
 10
-11.39999999963676
 20
271.50000000032048
 30
0.0
 40
1.2499999999999849
 50
180.0
 51
0.0
  0
LINE
  5
3C5
  8
DATA
  6
CONTINUOUS
 62
     7
 10
-33.499999999636962
 20
84.249999999999986
 30
0.0
 11
-33.499999999636962
 21
83.950000000000017
 31
0.0
  0
LINE
  5
3C6
  8
DATA
  6
CONTINUOUS
 62
     7
 10
-0.4999999996369553
 20
84.249999999999986
 30
0.0
 11
-0.4999999996369553
 21
83.950000000000017
 31
0.0
  0
LINE
  5
3C7
  8
DATA
  6
CONTINUOUS
 62
     7
 10
-31.499999999636959
 20
87.749999999999986
 30
0.0
 11
-2.4999999996369549
 21
87.749999999999986
 31
0.0
  0
LINE
  5
3C8
  8
DATA
  6
CONTINUOUS
 62
     7
 10
-32.499999999636962
 20
85.249999999999986
 30
0.0
 11
-22.749999999636721
 21
85.249999999999986
 31
0.0
  0
LINE
  5
3C9
  8
DATA
  6
CONTINUOUS
 62
     7
 10
-11.24999999963671
 20
85.249999999999986
 30
0.0
 11
-1.4999999996369551
 21
85.249999999999986
 31
0.0
  0
LINE
  5
3CA
  8
DATA
  6
CONTINUOUS
 62
     7
 10
-31.499999999636959
 20
81.950000000000003
 30
0.0
 11
-22.749999999636721
 21
81.950000000000003
 31
0.0
  0
LINE
  5
3CB
  8
DATA
  6
CONTINUOUS
 62
     7
 10
-11.24999999963671
 20
81.950000000000003
 30
0.0
 11
-2.4999999996369549
 21
81.950000000000003
 31
0.0
  0
LINE
  5
3CC
  8
DATA
  6
CONTINUOUS
 62
     7
 10
-23.649999999636751
 20
81.950000000000003
 30
0.0
 11
-23.649999999636751
 21
75.749999999999986
 31
0.0
  0
LINE
  5
3CD
  8
DATA
  6
CONTINUOUS
 62
     7
 10
-10.149999999636741
 20
81.950000000000003
 30
0.0
 11
-10.149999999636741
 21
75.749999999999986
 31
0.0
  0
ARC
  5
3CE
  8
DATA
  6
CONTINUOUS
 62
     7
 10
-31.499999999636959
 20
85.749999999999986
 30
0.0
 40
2.0
 50
90.0
 51
180.0
  0
ARC
  5
3CF
  8
DATA
  6
CONTINUOUS
 62
     7
 10
-2.4999999996369549
 20
85.749999999999986
 30
0.0
 40
2.0
 50
0.0
 51
90.0
  0
ARC
  5
3D0
  8
DATA
  6
CONTINUOUS
 62
     7
 10
-31.499999999636959
 20
83.950000000000017
 30
0.0
 40
2.0
 50
180.0
 51
270.0
  0
ARC
  5
3D1
  8
DATA
  6
CONTINUOUS
 62
     7
 10
-2.4999999996369549
 20
83.950000000000017
 30
0.0
 40
2.0
 50
270.0
 51
0.0
  0
ARC
  5
3D2
  8
DATA
  6
CONTINUOUS
 62
     7
 10
-32.499999999636962
 20
84.249999999999986
 30
0.0
 40
1.0
 50
90.0
 51
180.0
  0
ARC
  5
3D3
  8
DATA
  6
CONTINUOUS
 62
     7
 10
-1.4999999996369551
 20
84.249999999999986
 30
0.0
 40
1.0
 50
0.0
 51
90.0
  0
LINE
  5
3D4
  8
DATA
  6
CONTINUOUS
 62
     7
 10
-33.499999999636962
 20
85.749999999999986
 30
0.0
 11
-33.499999999636962
 21
83.860000000000014
 31
0.0
  0
LINE
  5
3D5
  8
DATA
  6
CONTINUOUS
 62
     7
 10
-0.4999999996369553
 20
85.749999999999986
 30
0.0
 11
-0.4999999996369553
 21
84.300000000000026
 31
0.0
  0
LINE
  5
3D6
  8
DATA
  6
CONTINUOUS
 62
     7
 10
203.0250000003559
 20
75.745000000741697
 30
0.0
 11
203.0250000003559
 21
81.201246449733574
 31
0.0
  0
LINE
  5
3D7
  8
DATA
  6
CONTINUOUS
 62
     7
 10
205.0250000003559
 20
75.745000000741697
 30
0.0
 11
205.0250000003559
 21
79.786311884691884
 31
0.0
  0
LINE
  5
3D8
  8
DATA
  6
CONTINUOUS
 62
     7
 10
209.52000000026331
 20
84.599999999999994
 30
0.0
 11
204.46346808313399
 21
83.120798977262126
 31
0.0
  0
LINE
  5
3D9
  8
DATA
  6
CONTINUOUS
 62
     7
 10
209.52000000026331
 20
82.59999999999998
 30
0.0
 11
206.46346808313399
 21
81.705864412220393
 31
0.0
  0
ARC
  5
3DA
  8
DATA
  6
CONTINUOUS
 62
     7
 10
205.0250000003559
 20
81.201246449733574
 30
0.0
 40
2.0000000000000071
 50
106.3059248207941
 51
179.9999999999998
  0
ARC
  5
3DB
  8
DATA
  6
CONTINUOUS
 62
     7
 10
207.0250000003559
 20
79.786311884691912
 30
0.0
 40
1.9999999999999929
 50
106.3059248207942
 51
180.0000000000002
  0
ARC
  5
3DC
  8
DATA
  6
STYLE_05
 62
     7
 10
8.4950000003632056
 20
189.1269291480256
 30
0.0
 40
17.000000000000089
 50
302.56721595097611
 51
237.43278404902381
  0
LINE
  5
3DD
  8
DATA
  6
STYLE_05
 62
     7
 10
-0.6559071233843241
 20
174.80000000000001
 30
0.0
 11
17.645907124110899
 21
174.80000000000001
 31
0.0
  0
ARC
  5
3DE
  8
DATA
  6
STYLE_05
 62
     7
 10
215.02500000036321
 20
189.1269291480256
 30
0.0
 40
17.000000000000089
 50
302.56721595097611
 51
237.43278404902381
  0
LINE
  5
3DF
  8
DATA
  6
STYLE_05
 62
     7
 10
205.87409287661569
 20
174.80000000000001
 30
0.0
 11
224.17590712411089
 21
174.80000000000001
 31
0.0
  0
CIRCLE
  5
3E0
  8
DATA
  6
STYLE_05
 62
     7
 10
8.0
 20
282.5
 30
0.0
 40
17.0
  0
TEXT
  5
3E1
  8
DATA
 62
     7
 10
36.0
 20
227.3386734842525
 30
0.0
 40
8.1442057291666661
  1
ウインドスクリーン
 41
0.7
 11
36.0
 21
235.48287921341921
 31
0.0
 73
     3
  0
LINE
  5
3E2
  8
DATA
  6
CONTINUOUS
 62
     7
 10
15.19999999999999
 20
204.74880403565911
 30
0.0
 11
31.25
 21
225.0
 31
0.0
  0
LINE
  5
3E3
  8
DATA
  6
CONTINUOUS
 62
     7
 10
15.19999999999999
 20
204.74880403565911
 30
0.0
 11
19.210832322582061
 21
213.7572809261421
 31
0.0
  0
LINE
  5
3E4
  8
DATA
  6
CONTINUOUS
 62
     7
 10
15.19999999999999
 20
204.74880403565911
 30
0.0
 11
23.177721126917319
 21
210.54495771093141
 31
0.0
  0
LINE
  5
3E5
  8
DATA
  6
CONTINUOUS
 62
     7
 10
31.25
 20
225.0
 30
0.0
 11
136.22487271134051
 21
225.0
 31
0.0
  0
LINE
  5
3E6
  8
DATA
  6
CONTINUOUS
 62
     7
 10
11.232811253378481
 20
182.9027399938075
 30
0.0
 11
11.232811253378481
 21
188.5972600061925
 31
0.0
  0
LINE
  5
3E7
  8
DATA
  6
CONTINUOUS
 62
     7
 10
12.032811253378441
 20
183.99318710784601
 30
0.0
 11
12.032811253378441
 21
187.50681289215399
 31
0.0
  0
LINE
  5
3E8
  8
DATA
  6
CONTINUOUS
 62
     7
 10
5.5991070127529374
 20
183.06368211034089
 30
0.0
 11
11.39089298797364
 21
183.06368211034089
 31
0.0
  0
LINE
  5
3E9
  8
DATA
  6
CONTINUOUS
 62
     7
 10
5.0245094270950403
 20
183.8636821103409
 30
0.0
 11
11.965490573631479
 21
183.8636821103409
 31
0.0
  0
LINE
  5
3EA
  8
DATA
  6
CONTINUOUS
 62
     7
 10
4.6973147260678161
 20
184.66368211034089
 30
0.0
 11
12.29268527465876
 21
184.66368211034089
 31
0.0
  0
LINE
  5
3EB
  8
DATA
  6
CONTINUOUS
 62
     7
 10
4.7698504311562724
 20
187.06368211034089
 30
0.0
 11
12.22014956957031
 21
187.06368211034089
 31
0.0
  0
LINE
  5
3EC
  8
DATA
  6
CONTINUOUS
 62
     7
 10
5.1581080428048258
 20
187.8636821103409
 30
0.0
 11
11.8318919579217
 21
187.8636821103409
 31
0.0
  0
LINE
  5
3ED
  8
DATA
  6
CONTINUOUS
 62
     7
 10
5.8279873345003352
 20
188.6636821103408
 30
0.0
 11
11.162012666226239
 21
188.6636821103408
 31
0.0
  0
LINE
  5
3EE
  8
DATA
  6
CONTINUOUS
 62
     7
 10
5.6328112533784633
 20
183.02779949734889
 30
0.0
 11
5.6328112533784633
 21
188.47220050265111
 31
0.0
  0
LINE
  5
3EF
  8
DATA
  6
CONTINUOUS
 62
     7
 10
6.4328112533784738
 20
182.38104206440491
 30
0.0
 11
6.4328112533784738
 21
189.11895793559501
 31
0.0
  0
LINE
  5
3F0
  8
DATA
  6
CONTINUOUS
 62
     7
 10
7.2328112533784861
 20
182.00708942572959
 30
0.0
 11
7.2328112533784861
 21
189.4929105742703
 31
0.0
  0
LINE
  5
3F1
  8
DATA
  6
CONTINUOUS
 62
     7
 10
8.0328112533784406
 20
181.82713350186879
 30
0.0
 11
8.0328112533784406
 21
189.67286649813121
 31
0.0
  0
LINE
  5
3F2
  8
DATA
  6
CONTINUOUS
 62
     7
 10
8.8328112533784537
 20
181.81447162920449
 30
0.0
 11
8.8328112533784537
 21
189.68552837079559
 31
0.0
  0
LINE
  5
3F3
  8
DATA
  6
CONTINUOUS
 62
     7
 10
9.6328112533784633
 20
181.96742342410471
 30
0.0
 11
9.6328112533784633
 21
189.53257657589521
 31
0.0
  0
LINE
  5
3F4
  8
DATA
  6
CONTINUOUS
 62
     7
 10
10.43281125337848
 20
182.3079965793614
 30
0.0
 11
10.43281125337848
 21
189.19200342063851
 31
0.0
  0
LINE
  5
3F5
  8
DATA
  6
CONTINUOUS
 62
     7
 10
6.6380973178734157
 20
182.2636821103408
 30
0.0
 11
10.35190268285311
 21
182.2636821103408
 31
0.0
  0
LINE
  5
3F6
  8
DATA
  6
CONTINUOUS
 62
     7
 10
4.5553906204812051
 20
185.4636821103409
 30
0.0
 11
12.43460938024532
 21
185.4636821103409
 31
0.0
  0
LINE
  5
3F7
  8
DATA
  6
CONTINUOUS
 62
     7
 10
4.5785436059285294
 20
186.26368211034091
 30
0.0
 11
12.411456394797989
 21
186.26368211034091
 31
0.0
  0
LINE
  5
3F8
  8
DATA
  6
CONTINUOUS
 62
     7
 10
7.1492417816161833
 20
189.4636821103409
 30
0.0
 11
9.8407582191103398
 21
189.4636821103409
 31
0.0
  0
LINE
  5
3F9
  8
DATA
  6
CONTINUOUS
 62
     7
 10
4.8328112533784511
 20
184.26984001491121
 30
0.0
 11
4.8328112533784511
 21
187.2301599850887
 31
0.0
  0
ENDSEC
  0
EOF
